------------------------------------------------------------------------
         RAINBOW CONNECTION      ME FIRST AND THE GIMME GIMMES
------------------------------------------------------------------------

> MEANS STRUM

INTRO
G]-----]
D]-----]
A]-5---] x4
E]---3-]

VERSE1
First play til' the second stripes, then
play the part before the first stripes + the
part after the second stripes
G]-------------|-------------|----------]
D]-------------|-------------|----------]
A]-5>-2>-7>----|-5>-2>-------|-5>-2>----]
E]----------5>-|-------3>-5>-|-------3>-]

PRE-CHORUS
G]---------------------------------------------]
D]----12----12----12----12---11---11---11---11-]
A]-10----10----10----10----9----9----9----9----]
E]---------------------------------------------]

CHORUS
G]---------------------]
D]---------------------]
A]----------2>-------5-]
E]-0>-5>-2>----3>-5>---]

VERSE1
PRE-CHORUS
CHORUS
BRIDGE
G]---------------]
D]---------------]
A]-----5---5-7-8-]
E]-5-7---3-------]

VERSE2
Same structure as first verse1
G]-------------|-------------|----------]
D]-------------|-------------|----------]
A]-6>-3>-8>----|-6>-3>-------|-6>-3>----]
E]----------6>-|-------4>-6>-|-------4>-]

PRE-CHORUS
G]-------------------------------------------------]
D]----13----13----13----13----12----12----12----12-]
A]-11----11----11----11----10----10----10----10----]
E]-------------------------------------------------]

CHORUS - END
G]---------------------------------------]
D]---------------------------------------]
A]----------3>-------6>-1>-3>-6>-------6-]
E]-1>-6>-3>----4>-6>-------------4>-6>---]

TABBED BY FUNKEL



Текст, аккорды и табулатура для песни "Rainbow Connection", исполняет "Me First And The Gimme Gimmes".
Используемые в песне аккорды можно найти в разделе Как брать аккорды. Аккорды для шестиструнной гитары. Другие песни можно найти на нашем сайте, воспользовавшись алфавитным указателем вверху страницы.


 
Ошибка в тексте? Выделите ошибку и нажмите Ctrl+Enter