Tabbed by: Ray ([email protected])
Song: Puff the magic dragon
Artist: Me first and the gimme gimmes.

Hi ! I got this song on the internet the other day and its really cool so i
tabbed it. Im not so sure that the verse is absolutely correct but its close.
Listen to the song to get the rythm. 

INTRO
E|-----------|-----------|-----------|-------------|
B|-----------|-----------|-----------|-------------|
G|------7-7--|------4-4--|-----------|-5~--5/2~----|
D|-9-9-9---7~|-5-5-5---4~|------5-5-5|-5~--5/2~-5~-|
A|-----------|-----------|-7-7-7---5-|-3~--3/0~-5~-|
E|-----------|-----------|-----------|----------3~-|

VERSE 1 (IM NOT SURE IF THIS IS RIGHT...)
E|------------------------------|-----|
B|------------------------------|-----|
G|-5---5---2----------5---------|-----|
D|-5---5---2--5---3---5---2---5-|{5}--|
A|-3---2---0--5---3---3---2---5-|{5}PM|
E|------------3---1-------0---3-|{3}--|

CHORUS (x4)  (LET RING TO FINISH CHORUS)
E|-----------|-----|
B|-----------|-----|
G|----4--5---|--5~-|
D|-5--4--5--5|--5~-|
A|-5--2--3--5|--3~-|
E|-3--------3|-----|

INTERLUDE BETWEEN CHORUS AND VERSE 2.
E|-----------------------|
B|-----------------------|
G|-------------5-5-------|
D|-5-X-X-5-X-X-5-5-X-X-5-|
A|-5-X-X-5-X-X-3-3-X-X-5-|
E|-3-X-X-3-X-X-----X-X-3-|

VERSE 2. 
E|------------------------------|
B|------------------------------|
G|-5---5---2----------5---------|
D|-5---5---2--5---3---5---2---5-|
A|-3---2---0--5---3---3---2---5-|
E|------------3---1-------0---3-|

INTERLUDE BETWEEN VERSE 2 AND VERSE 3.
E|-----------------------|-----------------------|
B|-----------------------|-----------------------|
G|-------------5-5-------|-------------6-6-------|
D|-5-X-X-5-X-X-5-5-X-X-5-|-6-X-X-6-X-X-6-6-X-X-6-|
A|-5-X-X-5-X-X-3-3-X-X-5-|-6-X-X-6-X-X-4-4-X-X-6-|
E|-3-X-X-3-X-X-----X-X-3-|-4-X-X-4-X-X-----X-X-4-|

VERSE 3.
E|------------------------------|-------|
B|------------------------------|-------|
G|-6---6---3----------6---------|-------|
D|-6---6---3--6---4---6---3---6-|-{6}---|
A|-4---3---1--6---4---4---3---6-|-{6}PM-|
E|------------4---2-------1---4-|-{4}---|

CHORUS. (X4)    (FINISH BY LETTING THIS RING...)
E|------------|----|
B|------------|----|
G|----5--6----|-6~-|
D|-6--5--6--6-|-6~-|
A|-6--3--4--6-|-4~-|
E|-4--------4-|----|

LITTLE SOLO AT THE END.
E|------------------------|
B|------------------------|
G|------------------------|
D|------------------------|
A|-4~-1-3~-1-3-4-3-1-3----|
E|----------------------4-|

If you can find any major problems with this please let me know. 
Thanx, Ray........


Текст, аккорды и табулатура для песни "Puff The Magic Dragon", исполняет "Me First And The Gimme Gimmes".
Используемые в песне аккорды можно найти в разделе Как брать аккорды. Аккорды для шестиструнной гитары. Другие песни можно найти на нашем сайте, воспользовавшись алфавитным указателем вверху страницы.


 
Ошибка в тексте? Выделите ошибку и нажмите Ctrl+Enter