ONLY THE GOOD DIE YOUNG - Me First and the Gimme Gimmie's


By:  Devon ([email protected])

 Verse:    
|-------------------------------------|-------------------------------------|
|-------------------------------------|-------------------------------------|
|-------------------------------------|------------------------------5---5-5|
|3--3--3--3---3-3---5---5-5---7--7--7-|-3--3--3--3---3-3---5---5-5---5---5-5|
|3--3--3--3---3-3---5---5-5---7--7--7-|-3--3--3--3---3-3---5---5-5---3---3-3|
|1--1--1--1---1-1---3---3-3---5--5--5-|-1--1--1--1---1-1---3---3-3----------|
                                                                                  
|---------------------------------------|--------------------------|
|---------------------------------------|--------------------------|
|---------------------------------------|--------------------------|
|--3--3--3--3---3-3---5---5-5---7--7--7-|------3---------------5---|
|--3--3--3--3---3-3---5---5-5---7--7--7-|------3---------------5---|
|--1--1--1--1---1-1---3---3-3---5--5--5-|------1---------------3---|
 
 Chorus:
|---------------------------------------|-----------------------------|
|---------------------------------------|-----------------------------|
|--5----5---5---------------------------|----------------5----5----5--|
|--5----5---5------3---3---3--------5---|--5----5--------5----5----5--|
|--3----3---3------3---3---3--------5---|--5----5--------3----3----3--|
|------------------1---1---1--------3---|--3----3---------------------|

 Fill:  During Chorus    
|---------------------------------------|
|-------------------7---5---------------|
|------------5--7-----------7-----------|
|------5--7-----------------------------|
|---------------------------------------|
|---------------------------------------|

 Solo:    
|--12------12--12-12-12--12-------10----|-10-10--10-10-10-------9------9---9--9-|
|--15b17---17--17-17-17--17r15----13b15-|-15-15--15-15-15r13----12b14--14--14-14|
|---------------------------------------|---------------------------------------|
|---------------------------------------|---------------------------------------|
|---------------------------------------|---------------------------------------|
|---------------------------------------|---------------------------------------|
       

    
|--9---9---9--9----9---9---9------------|-14-----17------------16-----19-19--19-|
|--14--14--14-14---14--14--14r12--------|-17b19-----19-19r17---19b21--21-21--21-|
|---------------------------------------|---------------------------------------|
|---------------------------------------|---------------------------------------|
|---------------------------------------|---------------------------------------|
|---------------------------------------|---------------------------------------|
                                                                                  
|---------------------------------------|---------------------------------------|
|-21r19---------------------------------|---------------------------------------|
|---------12h14p12-----12h14p12---------|-12h14p2-------------------------------|
|-------------------14------------14----|----------14--12-----------------------|
|---------------------------------------|------------------14--12---------------|
|---------------------------------------|---------------------------------------|


Текст, аккорды и табулатура для песни "Only The Good Die Young", исполняет "Me First And The Gimme Gimmes".
Используемые в песне аккорды можно найти в разделе Как брать аккорды. Аккорды для шестиструнной гитары. Другие песни можно найти на нашем сайте, воспользовавшись алфавитным указателем вверху страницы.


 
Ошибка в тексте? Выделите ошибку и нажмите Ctrl+Enter