Me First and the Gimme Gimmes : My favorite things {Bass Tab}
==================================================
By T. Van Lee ([email protected])

Intro
G|---------------------------------|
D|---------------------------------|
A|---------------------------3>-3>-|
E|-5-5-55--1-1-11--3-3-33333-------|

Verse 1                                           X2
G|-------------------------------------------------|
D|-------------------------------------------------|
A|-------------------------5>----3>------(3)-5>-7>-|
E|-5>-5>-5>-5>-1>-1>-1>-1>----3>----1>-1>-1>-------|

Chorus 1
G|-------------------------------------------------|
D|-------------------------------------------------|
A|-------5>-5>-------------------5>-5>-3>-3>-7>-7>-|
E|-5>-5>-------5>-5>-1>-1>-1>-1>-------------------|

Brigde 1
G|-------------------------------------------------|
D|-------------------------------------------------|
A|-3>-3>-------------------1-1-11--1-1-11--4-4-44--|
E|-------3>-3>-3>-3>-1>-1>-------------------------|

Verse 2
G|-------------------------------------------------|
D|-------------------------------------------------|
A|-1>-1>-1>-1>-------------6>----4>------(4)-6>-8>-|
E|-------------2>-2>-2>-2>----4>----2>-2>-2>-------|

Bridge 2
G|-------------|
D|-------------|
A|-1>-1>-1>-1>-|
E|-------------|

Verse 2

Chorus 2
G|--------------------------------------------------------|
D|--------------------------------------------------------|
A|-1-1-11--6-6-66--1-1-11-1-------------6>-6>-4>-4>-8>-8>-|
E|--------------------------2>-2>-2>-2>-------------------|

Ending
G|-------------|
D|-------------|
A|-4>-4>-4>-4--|
E|-------------|


Variations possible in verses, I don't know.I Placed them between ( )
Sounds correct, play and judge for yourself.



Текст, аккорды и табулатура для песни "My Favorite Things", исполняет "Me First And The Gimme Gimmes".
Используемые в песне аккорды можно найти в разделе Как брать аккорды. Аккорды для шестиструнной гитары. Другие песни можно найти на нашем сайте, воспользовавшись алфавитным указателем вверху страницы.


 
Ошибка в тексте? Выделите ошибку и нажмите Ctrl+Enter