Band: Me First and the Gimme Gimmes
Song: I Only Want To Be With You
Album: Blow In The Wind

Drop-D Tuning

Intro:

E|----------------|
B|----------------|
G|----------------|
D|----------------|
A|----------------|
D|--0000-0h2-3h4--|

Verse:

E|------------------------|
B|------------------------|
G|--------4~----------4~--|
D|--0~----4-----0~----4---|
A|--0-----2-----0-----2---|
D|--0-----------0---------|

Pre-Chorus:

E|--------------------------|
B|--------------------------|
G|--------------------------|
D|--5555--7777--2222--7777--|
A|--5555--7777--2222--7777--|
D|--5555--7777--2222--7777--|

(That ever since...)
E|------------|
B|------------|
G|--------4~--|
D|--0~----4---|
A|--0-----2---|
D|--0---------|

Chorus:

E|----------------------------------|
B|----------------------------------|
G|----------------------------------|
D|--22222222--77777777--5555--7777--|
A|--22222222--77777777--5555--7777--|
D|--22222222--77777777--5555--7777--|

E|------------|
B|------------|
G|------------|
D|--00000000--|
A|--00000000--|
D|--00000000--|

Bridge:

(You stopped...)
E|------------------------------------------------------------------|
B|------------------------------------------------------------------|
G|----------------777777777777----------------777777----------------|
D|--555555555555--777777777777--777777777777--777777--777777777777--|
A|--555555555555--555555555555--777777777777--555555--777777777777--|
D|--555555555555----------------777777777777----------777777777777--|

Chorus:

(No matter what...)
E|----------------------------------|
B|----------------------------------|
G|----------------------------------|
D|--22222222--77777777--5555--7777--|
A|--22222222--77777777--5555--7777--|
D|--22222222--77777777--5555--7777--|

E|----------------|
B|----------------|
G|----------------|
D|--55555555--0~--|
A|--55555555--0---|
D|--55555555--0---|

Ending:

E|----------------|
B|----------------|
G|----------------|
D|----------------|
A|----------------|
D|--0000-0h2-3h4--|


Текст, аккорды и табулатура для песни "I Only Want To Be With You", исполняет "Me First And The Gimme Gimmes".
Используемые в песне аккорды можно найти в разделе Как брать аккорды. Аккорды для шестиструнной гитары. Другие песни можно найти на нашем сайте, воспользовавшись алфавитным указателем вверху страницы.


 
Ошибка в тексте? Выделите ошибку и нажмите Ctrl+Enter