------------------------------------------------------------------------
     DON'T CRY FOR ME ARGENTINA      ME FIRST AND THE GIMME GIMMES
------------------------------------------------------------------------

> MEANS STRUM

INTRO
G]-----------]
D]-----------]
A]-5-3-2-----]
E]-------5-3-]

VERSE
G]----------------------------------------]
D]----------------------------------------]
A]-10>-3>-5>----7>----10>-5>----5-3-2-----]
E]-----------3>----5>--------5>-------5-5-]

CHORUS
G]-----------------]
D]-----------------]
A]----5>-3>----3-3-]
E]-3>-------3>-----]

VERSE
G]---------------------------------------]
D]---------------------------------------]
A]----3>-5>----7>----10>-5>----5-3-2-----]
E]-3>-------3>----5>--------5>-------5-3-]

CHORUS
G]-----------------]
D]-----------------]
A]-10>-5>-3>----3>-]
E]-----------3>----]

BRIDGE
G]------------------------------]
D]------------------------------]
A]----5>----7>----5>-----5-5-3>-]
E]-5>----3>----5>----3-3--------]

CHORUS
G]----------------]
D]----------------]
A]----5>-3>----3>-]
E]-3>-------3>----]

END
G]--------]
D]--------]
A]----3-3-]
E]-3>-----]

TABBED BY FUNKEL





Текст, аккорды и табулатура для песни "Dont Cry For Me Argentina", исполняет "Me First And The Gimme Gimmes".
Используемые в песне аккорды можно найти в разделе Как брать аккорды. Аккорды для шестиструнной гитары. Другие песни можно найти на нашем сайте, воспользовавшись алфавитным указателем вверху страницы.


 
Ошибка в тексте? Выделите ошибку и нажмите Ctrl+Enter