Title: Met This Girl
Artist: McFly
Tuning: Eadgbe (standard tuning)
Tabbed By: Lewis Micthell ([email protected])

Intro (bass)
g|----------------------------|
d|-7--11--12--5--7------------|
a|----------------------------| x2
E|----------------------------|

 Verse
|----------------------------|
|----------------------------|
|----------------------------|
|--7--11--12--5--7-----------|  x2
|----------------------------|
|----------------------------|

|----------------------------|
|----------------------------|
|--7--11--12--5--7-----------|
|----------------------------|  x 1
|----------------------------|
|----------------------------|

|----------------------------|
|----------------------------|
|----------------------------|
|--7--11--12--5--7-----------|  x 1
|----------------------------|
|----------------------------|

Pre-Chorus
|----------------------------|
|----------------------------|
|--7----------9--------------|
|--7--x9------9--x5----------|
|--5----------7--------------|
|----------------------------|

Chorus
|----------------------------|
|----------------------------|
|----------------------------|
|--7--11--12--5--7-----------|  x2
|----------------------------|
|----------------------------|

|----------------------------|
|----------------------------|
|--7--11--12--5--7-----------|
|----------------------------|  x 1
|----------------------------|
|----------------------------|

|----------------------------|
|----------------------------|
|----------------------------|
|--7--11--12--5--7-----------|  x 1
|----------------------------|
|----------------------------|


Here ya go Probably not right but try it out.


Текст, аккорды и табулатура для песни "Met This Girl", исполняет "Mcfly".
Используемые в песне аккорды можно найти в разделе Как брать аккорды. Аккорды для шестиструнной гитары. Другие песни можно найти на нашем сайте, воспользовавшись алфавитным указателем вверху страницы.


Слушать онлайн Met This Girl


McFlyMet This Girl на Яндекс.Музыке


 
Ошибка в тексте? Выделите ошибку и нажмите Ctrl+Enter