This is McFly a band from the UK and this is their first single, 5 colours in her hair.
Their website is www.mcflyofficial.com
----------------------------------------------------------------------------
			 5 colours in her hair - McFly
----------------------------------------------------------------------------
Tabbed by: Anna!!!
Email: [email protected]
 
Just so you know, I haven't tabbed the rhythm seeing as I have no idea if you can, or how
to, so you have to just go along with what I've got and put your own rhythm of strumming
etc to it! Also it sounds better when you play along with the song, and it actually goes,
cause when you just play it on its own, it doesn't sound as good! (C1 means chorus 1, C2
means chorus 2, V1 means verse 1 and V2 means verse 2!! Lol just incase you didn't get
that!)

Thanks!

Tuning: eBGDAE

Intro:
e|- - - - - - - - - - - - - - - - - - - - - - - - - - - - - - - - - - -| 
B|- - - - - - - - - - - - - - - - - - - - - - - - - - - - - - - - - - -| 
G|- - - - - - - - - - - - - - - - - - - - - - - - - - - - - - - - - - -|
D|- - - - - - - - - - - -0-5-5-3-5-3-0- - - - - - -0-5-5-3-5-3-0- - - -|
A|- - - - - -0-3-1-3-1-3 - - - - - - - 4-3-1-3-1-3- - - - - - - -4-3-1-|
E|-3-1-3-1-3- - - - - - - - - - - - - - - - - - - - - - - - - - - - - -|

e|- - - - - - - - - - - - - - - - - - - - - - - - - - - - - - - - - - -| 
B|- - - - - - - - - - - - - - - - - - - - - - - - - - - - - - - - - - -| 
G|- - - - - - - - - - - - - - - - - - - - - - - - - - - - - - - - - - -|
D|- - - - 0-0-0-0-0-0-0-0-0-0-0-0-0-0-0-0- - - - - - - - - - - - - - - |
A|3-1-3-4- - - - - - - - - - - - - - - - - - - - - - - - - - - - - - - | 
E|- - - - - - - - - - - - - - - - - - - - - - - - - - - - - - - - - - -| 

Do that once, on its own, then you do it again with the 'do do do do do's 

e| - - - - - - - - - - - - - - - - - - - - - - - - - - - - - - - - - - - - |
B| - - - - - - - - - - - - - - - - - - - - - - - - - - - - - - - - - - - - |
G| - - - - - - - - - - - - - - - - - - - - - - - - - - - - - - - - - - - - |
D|- 5 - - - - - - - - - - - - - - - - - - 3- - - -3 - - -5- - -5- - - - - -|
A|- 5 - - - - - - - - - - - - - - - - - - 3- - - -3 - - -5- - -5- - - - - -|
E|- 3 - - - - - - - - - - - - - - - - - - 1- - - -1 - - -3- - -3- - - - - -|
Vrs 1: She's got a lip ring with 5       colours in her  hair
V 2:    She's just a loner with a         sexy atti......tude    

e| - - - - - - - - - - - - - - - - - - - - - - - - - - - - - - - - - - - - |
B| - - - - - - - - - - - - - - - - - - - - - - - - - - - - - - - - - - - - |
G| - - - - - - - - - - - - - - - - - - - - - - - - - - - - - - - - - - - - |
D| -5- - - - - - - - - - - - - - - - -3- - - -3- - - - - - 5- - 5- - - - - |
A| -5- - - - - - - - - - - - - - - - -3- - - -3- - - - - - 5- - 5- - - - - |
E| -3- - - - - - - - - - - - - - - - -1- - - -1- - - - - - 3- - 3- - - - - |
V 1:  Not into fashion but I          love the clothes she wears            
V 2: I'd like to phone her cause she   puts me in the       mood


e| - - - - - - - - - - - - - - - - - - - - - - - - - - - - - - - - - - - - |
B| - - - - - - - - - - - - - - - - - - - - - - - - - - - - - - - - - - - - |
G| - - - - - - - - - - - - - - - - - - - - - - - - - - - - - - - - - - - - |
D| -5- - - 5 - - 5 - - -5 - - - - -3 - - - 3 - - - -5 - - - 5 - - - - - - -|
A| -5- - - 5 - - 5 - - -5 - - - - -3 - - - 3 - - - -5 - - - 5 - - - - - - -|
E| -3- - - 3 - - 3 - - -3 - - - - -1 - - - 1 - - - -3 - - - 3 - - - - - - -|
V1:Her tattoos always hidden       by her under     wear  but you 
2:The rumours spreading round that she cooks in the nude  but you 


e| - - - - - - - - - - - - - - - - - - - - - - - - - - - - - - - - - - - - |
B| - - - - - - - - - - - - - - - - - - - - - - - - - - - - - - - - - - - - |
G| - - - - - - - - - - - - - - - - - - - - - - - - - - - - - - - - - - - - |
D| - - - 5- - - - - - - - 7- - - - - - - - - - - - - - - - - - - - - - - - |
A| - - - 5- - - - - - - - 7- - - - - - - - - - - - - - - - - - - - - - - - |
E| - - - 3- - - - - - - - 5- - - - - - - - - - - - - - - - - - - - - - - - |
V1:don't care
V2:don't care, you don't care


Chorus:

e| - - - - - - - - - - - - - - - - - - - - - - - - - - - - - - - - - - - - |
B| - - - - - - - - - - - - - - - - - - - - - - - - - - - - - - - - - - - - |
G| - - - - - - 4- - - -4- - - - 5 - -5- - 7 - - 7 - - - - - - - - - - - - -|
D| -5 - -5- - -4- - - -4- - - - 5 - -5- - 7 - - 7 - - - - - - - - - - - - -|
A| -5 - -5- - -2- - - -2- - - - 3 - -3- - 5 - - 5 - - - - - - - - - - - - -|
E| -3 - -3- - - - - - - - - - - - - - - - - - - - - - - - - - - - - - - - -|
C1: Everybody wants to know her nae  ae   ae   ame
C2: Everybody wants to know her nae  ae   ae   ame


e| - - - - - - - - - - - - - - - - - - - - - - - - - - - - - - - - - - - - |
B| - - - - - - - - - - - - - - - - - - - - - - - - - - - - - - - - - - - - |
G| - - - - - - - - -4- - - -4- - - - - - - - - - - - - -5 - -5- - 7 - - 7 -|
D| -5 - -5- - - - - 4- - - -4- - - - - - - - - - - - - -5 - -5- - 7 - - 7 -|
A| -5 - -5- - - - - 2- - - -2- - - - - - - - - - - - - -3 - -3- - 5 - - 5 -|
E| -3 - -3- - - - - - - - - - - - - - - - - - - - - - - - - - - - - - - - -|
C1:I had a house    party and she                      cae  ae    ae   ame
2:Howdus she cope with her new found                fae  ae    ae   ame

e| - - - - - - - - - - - - - - - - - - - - - - - - - - - - - - - - - - - -|
B| - - - - - - - - - - - - - - - - - - - - - - - - - - - - - - - - - - - -|
G| -5- - 5 - - - - 7 - -7 - - -4- - - 4 - - - - - -9- - - - 9 - - - - - - |
D| -5- - 5 - - - - 7 - -7 - - -4- - - 4 - - - - - -9- - - - 9 - - - - - - |
A| -3- - 3 - - - - 5 - -5 - - -2- - - 2 - - - - - -7- - - - 7 - - - - - - |
E| - - - - - - - - - - - - - - - - - - - - - - - - - - - - - - - - - - - -|
C1: Everyone asked me         who the hell is     she,             that
C2:  Everyone asked me        who the hell is     she,             that

e| - - - - - - - - - - - - - - - - - - - - - - - - - - - - - - - - - - - -|
B| - - - - - - - - - - - - - - - - - - - - - - - - - - - - - - - - - - - -|
G| -5- - - 5 - - - 7 - - - - - - - - - - - - - - - - - - - - - - - - - - -|
D| -5- - - 5 - - - 7 - - - - - - - - 5-3-5- -5-3-5 - - - - - - - - - - - -|
A| -3- - - 3 - - - 5 - - - - - - - - 5-3-5- -5-3-5 - - - - - - - - - - - -|
E| - - - - - - - - - - - - - - - - - 3-1-3- -3-1-3 - - - - - - - - - - - -|
C1: weirdo with 5 colours in her hair

(GO back 2 the start, skipping the intro for the next verse, that's V 2: )
The end few chords of this line are different for verse 2, so  from 'who the hell is she,
that...' Etc, it goes :

e| - - - - - - - - - - - - - - - - - - - - - - - - - - - - - - - - - - - -|
B| - - - - - - - - - - - - - - - - - - - - - - - - - - - - - - - - - - - -|
G| -5- - - 5 - - - 7 - - - - - - - - - - - - - - - - - - - - - - - - - - -| 
D| -5- - - 5 - - - 7 - - - - - - - - -5-5-5-5-5-5-5-5-4-4-4-4-4-4-4-4- -2-|
A| -3- - - 3 - - - 5 - - - - - - - - -5-5-5-5-5-5-5-5-4-4-4-4-4-4-4-4- -2-|
E| - - - - - - - - - - - - - - - - - -3-3-3-3-3-3-3-3-2-2-2-2-2-2-2-2- -0-|
C2: weirdo with 5 colours in her hair (p.m. the 1st 12 chords, but let last one ring out)


Bridge:
e| - - - - - - - - - - - - - - - - - - - - - - - - - - - - - - - - - - - -|
B| - - - - - - - - - - - - - - - - - - - - - - - - - - - - - - - - - - - -|
G| - - - - - - - - - - - - - - - - - - - - - - - - - - - - - - - - - - - -|
D| -2- - - - - - -7- - - - - - - - - - - - - - - - - - -5- - - - - - - - -|
A| -2- - - - - - -7- - - - - - - - - - - - - - - - - - -5- - - - - - - - -|
E| -0- - - - - - -5- - - - - - - - - - - - - - - - - - -3- - - - - - - - -|
    She was all I thought about    The girl I couldn't live without

e| - - - - - - - - - - - - - - - - - - - - - - - - - - - - - - - - - - - -|
B| - - - - - - - - - - - -8- - - - - - - - -8- - - - - 7-8-10-8-7-7h8- - -|
G| - - - - - - - - - - - - - - - - - - - - - - - - - - - - - - - - - - - -|
D| - 3 - - - - - - - - - - - - - - - - - - - - - - - - - - - - - - - - - -|
A| - 3 - - - - - - - - - - - - - - - - - - - - - - - - - - - - - - - - - -|
E| - 1 - - - - - - - - - - - - - - - - - - - - - - - - - - - - - - - - - -|
 But then she went insane    She couldn't take the fame

e| - - - - - - - - - - - - - - - - - - - - - - - - - - - - - - - - - - - -|
B| - - - - - - - - - - -7-8-10-8-7-5- - - - - - -7- - - - 4 - - - 5-7- - -|
G| - - - - - - - - - - - - - - - - - - - - - - - - - - - - - - - - - - - -|
D| - - - - - - - - - - - - - - - - - - - - - - - - - - - - - - - - - - - -|
A| - - - - - - - - - - - - - - - - - - - - - - - - - - - - - - - - - - - -|
E| - - - - - - - - - - - - - - - - - - - - - - - - - - - - - - - - - - - -|
 She said I was to blame          She had had enough,and shaved 5colours   
  
e| - - - - - - - - - - - - - - - - - - - - - - - - - - - - - - - - - - - -|
B| 8- - 7 - 5- - - - - - - - - - - - - - - - - - - - - - - - - - - - - - -|
G| - - - - - - - - - - - - - - - - - - -5- - - - - - - - - - - - - - - - -|
D| - - - - - - - - - - - - - - - - - - -5- - - - - - - - - - - - - - - - -|
A| - - - - - - - - - - - - - - - - - - -3- - - - - - - - - - - - - - - - -|
E| - - - - - - - - - - - - - - - - - - - - - - - - - - - - - - - - - - - -|
   off and now            She's just a weirdo with no name


Solo type bit:
e|- - - - - - - - - - - - - - - - - - - - - - - - - - - - - - - - - - -| 
B|- - - - - - - - - - - - - - - - - - - - - - - - - - - - - - - - - - -| 
G|- - - - - - - - - - - - - - - - - - - - - - - - - - - - - - - - - - -|
D|- - - - - - - - - - - -0-5-5-3-5-3-0- - - - - - -0-5-5-3-5-3-0- - - -|
A|- - - - - -0-3-1-3-1-3 - - - - - - - 4-3-1-3-1-3- - - - - - - -4-3-1-|
E|-3-1-3-1-3- - - - - - - - - - - - - - - - - - - - - - - - - - - - - -|

e|- - - - - - - - - - - - - - - - - - - - - - - - - - - - - - - - - - -| 
B|- - - - - - - - - - - - - - - - - - - - - - - - - - - - - - - - - - -| 
G|- - - - - - - - - - - - - - - - - - - - - - - - - - - - - - - - - - -|
D|- - - - 0-0-0-0-0-0-0-0-0-0-0-0-0-0-0-0- - - - - - - - - - - - - - - |
A|3-1-3-4- - - - - - - - - - - - - - - - - - - - - - - - - - - - - - - | 
E|- - - - - - - - - - - - - - - - - - - - - - - - - - - - - - - - - - -| 


Chorus:
e| - - - - - - - - - - - - - - - - - - - - - - - - - - - - - - - - - - - - |
B| - - - - - - - - - - - - - - - - - - - - - - - - - - - - - - - - - - - - |
G| - - - - - - 4- - - - - - - - 5 - -5- - 7 - - 7 - - - - - - - - - - - - -|
D| -5 - - - - -4- - - - - - - - 5 - -5- - 7 - - 7 - - - - - - - - - - - - -|
A| -5 - - - - -2- - - - - - - - 3 - -3- - 5 - - 5 - - - - - - - - - - - - -|
E| -3 - - - - - - - - - - - - - - - - - - - - - - - - - - - - - - - - - - -|
    Everybody wants to know her nae  ae   ae   ame
   


e| - - - - - - - - - - - - - - - - - - - - - - - - - - - - - - - - - - - - |
B| - - - - - - - - - - - - - - - - - - - - - - - - - - - - - - - - - - - - |
G| - - - - - - - - -4- - - -4- - - - - - - - - - - - - -5 - -5- - 7 - - 7 -|
D| -5 - -5- - - - - 4- - - -4- - - - - - - - - - - - - -5 - -5- - 7 - - 7 -|
A| -5 - -5- - - - - 2- - - -2- - - - - - - - - - - - - -3 - -3- - 5 - - 5 -|
E| -3 - -3- - - - - - - - - - - - - - - - - - - - - - - - - - - - - - - - -|
How does she cope with her new found                fae  ae    ae   ame

e| - - - - - - - - - - - - - - - - - - - - - - - - - - - - - - - - - - - -|
B| - - - - - - - - - - - - - - - - - - - - - - - - - - - - - - - - - - - -|
G| -5- - 5 - - - - 7 - -7 - - -4- - - 4 - - - - - -9- - - - 9 - - - - - - |
D| -5- - 5 - - - - 7 - -7 - - -4- - - 4 - - - - - -9- - - - 9 - - - - - - |
A| -3- - 3 - - - - 5 - -5 - - -2- - - 2 - - - - - -7- - - - 7 - - - - - - |
E| - - - - - - - - - - - - - - - - - - - - - - - - - - - - - - - - - - - -|
    Everyone asked me         who the hell is     she,             that

e| - - - - - - - - - - - - - - - - - - - - - - - - - - - - - - - - - - - -|
B| - - - - - - - - - - - - - - - - - - - - - - - - - - - - - - - - - - - -|
G| -5- - - 5 - - - 7 - - - - - - - - - - - - - - - - - - - - - - - - - - -|
D| -5- - - 5 - - - 7 - - - - - - - - 5-5-5-5-5-5-5-5- - - - - - - - - - - |
A| -3- - - 3 - - - 5 - - - - - - - - 5-5-5-5-5-5-5-5- - - - - - - - - - - |
E| - - - - - - - - - - - - - - - - - 3-3-3-3-3-3-3-3- - - - - - - - - - - |
    weirdo with 5 colours in her hair


Outro:
e|- - - - - - - - - - - - - - - - - - - - - - - - - - - - - - - - - - -| 
B|- - - - - - - - - - - - - - - - - - - - - - - - - - - - - - - - - - -| 
G|- - - - - - - - - - - - - - - - - - - - - - - - - - - - - - - - - - -|
D|- - - - - - - - - - - -0-5-5-3-5-3-0- - - - - - -0-5-5-3-5-3-0- - - -|
A|- - - - - -0-3-1-3-1-3 - - - - - - - 4-3-1-3-1-3- - - - - - - -4-3-1-|
E|-3-1-3-1-3- - - - - - - - - - - - - - - - - - - - - - - - - - - - - -|

e|- - - - - - - - - - - - - - - - - - - - - - - - - - - - - - - - - - -| 
B|- - - - - - - - - - - - - - - - - - - - - - - - - - - - - - - - - - -| 
G|- - - - - - - - - - - - - - - - - - - - - - - - - - - - - - - - - - -|
D|- - - - 0 - - - - - - - - - - - - - - - - - - - - - - - - - - - - - -|
A|3-1-3-4- - - - - - - - - - - - - - - - - - - - - - - - - - - - - - - | 
E|- - - - - - - - - - - - - - - - - - - - - - - - - - - - - - - - - - -| 

(This is played when the do do do do do doo's are sang at the very end!)
Let the open D ring out at the end, and thats you! lol

Rate this and tell me truthfully what you think! I think its ok, with the exception
of a few chords! Thanks! Enjoy!


Текст, аккорды и табулатура для песни "5 Colours In Her Hair", исполняет "Mcfly".
Используемые в песне аккорды можно найти в разделе Как брать аккорды. Аккорды для шестиструнной гитары. Другие песни можно найти на нашем сайте, воспользовавшись алфавитным указателем вверху страницы.


Слушать онлайн Five Colours In Her Hair


McFlyFive Colours In Her Hair на Яндекс.Музыке


 
Ошибка в тексте? Выделите ошибку и нажмите Ctrl+Enter