This is a beautiful song, by a beautiful woman
with a beatiful voice.

The Chords Are A, E, Bm and D

The Slide guitar part goes like this

 = slide up
/ = slide down
--7/9-- slide straight to second note
--7-/9-- let first note ring out before slide

Intro/background

   A      E       Bm
e|--7/9-------------------
b|--------7/9-----9-7----
g|------------------------
D|------------------------
A|------------------------
E|------------------------

       solo

    A                E             Bm
e|------9-----------------4-----4--4-2---2/4-4-4-2-----0-
b|------------10-------------5-------------------------3---
g|--7/9----------9---2/4-----------------------------------
D|---------------------------------------------------------
A|---------------------------------------------------------
E|---------------------------------------------------------


  A               E         Bm
e|-----9----------------4-----4-2----2/4-4-4-2---2---
b|----------10-------------5---------------------------
g|-7/9---------9----2/4--------------------------------
D|-----------------------------------------------------
A|-----------------------------------------------------
E|-----------------------------------------------------

    Chorus

   A        E      Bm       D
e|------------------------------------------
b|----------7/9-----9-/7---------7-----7----
g|--7/9----------------------5/7---7-7---7--
D|------------------------------------------
A|------------------------------------------
E|------------------------------------------

   A           E            Bm                      A     E
e|--5/9---9-----------------------------------------------
b|----------10-------9-------9-7---7/9-9-9-7---7-7-7-5-
g|--------------7/9------9--------------------------------
D|-------------------------9------------------------------
A|--------------------------------------------------------
E|--------------------------------------------------------

A         E             Bm
I want to hold the hand inside you
A         E                     Bm
I want to take the breath that's true
A         E            Bm
I look to you and I see nothing
A         E             Bm
I look to you to see the truth

   (A E Bm)
You live your life
You go in shadows
You'll come apart and you'll go black
Some kind of night into your darkness
Colors your eyes with what's not there

A E  Bm       A
Fade into you
A  E         Bm
Strange you never knew
A E  Bm       D A
Fade into you 
A            E            Bm
I think it's strange you never knew

Solo - A E Bm (x3) D  A E Bm

   (A E Bm)
A stranger's light comes on slowly
A stranger's heart without a home
You put your hands into your head
And then smiles cover your heart

   (A E Bm...D)
Fade into you
Strange you never knew
Fade into you
I think it's strange you never knew

   (A E Bm...D)
Fade into you
Strange you never knew
Fade into you 
I think it's strange you never knew

   (A E Bm...D)
Fade into you
Strange you never knew
Fade into you
I think it's strange you never knew
I think it's strange you never knew


Any Questions, Comments or Corrections, Don't hold back.

PeACe...


Текст, аккорды и табулатура для песни "Fade Into You", исполняет "Mazzy Star".
Используемые в песне аккорды можно найти в разделе Как брать аккорды. Аккорды для шестиструнной гитары. Другие песни можно найти на нашем сайте, воспользовавшись алфавитным указателем вверху страницы.


Слушать онлайн Fade Into You


Mazzy StarFade Into You на Яндекс.Музыке


 
Ошибка в тексте? Выделите ошибку и нажмите Ctrl+Enter