MAYHEM - Cursed in Eternity

Listen to the song for better timings. Transcription by J.Tervo,
[email protected]
This tab should be complete, but comments and corrections are always welcome.
Transcribed with the basic settings, EADGBe. Http://www.come.to/blackmoon

 Intro
-----------------------------------------
-----------------------------------------
-5------------------5--------------------
-5------8---------9-5--------------------
-3------6---------7-3-------44444433-----
-0------------------0--------------------

-----------------------------------------
-----------------------------------------
-5------------------55-5-55-5------------
-5------88-88-88-99-55-5-55-5------------
-3------66-66-66-77-33-3-33-3-66664444---
-0------------------00-0-00-0------------

 Riff A
------------------------------------------
------------------------------------------
-55555555-------------55555555------------
-55555555-88-88-88-99-55555555------------
-33333333-66-66-66-77-33333333-44444433---
-00000000-------------00000000------------

-----------------------------------------
-----------------------------------------
-55555555-------------55555555-----------
-55555555-88-88-88-99-55555555-----------
-33333333-66-66-66-77-33333333-66664444--
-00000000-------------00000000-----------

 Riff B
--------------------------------------
--------------------------------------
--------------------------------------
-44444444444444-66-33333333333333-22--
-44444444444444-66-33333333333333-22--
-22222222222222-44-11111111111111-00--

 Riff C
--------------------
--------------------
--------------------
--------------------
-4-3-4-3-4-3-6-3----
-2-1-2-1-2-1-4-1----

 Riff D
-----------------------------------------
-------101010101010----------------------
-777779------------10101010910-----------
------------------------------88881010---
-----------------------------------------
-----------------------------------------

 Playorder:

 Intro
 Riff A x4
 Riff B x8
 Riff C x8
 Riff D x8
 Riff C x16
 Riff B x4


Текст, аккорды и табулатура для песни "Cursed In Eternity", исполняет "Mayhem".
Используемые в песне аккорды можно найти в разделе Как брать аккорды. Аккорды для шестиструнной гитары. Другие песни можно найти на нашем сайте, воспользовавшись алфавитным указателем вверху страницы.


 
Ошибка в тексте? Выделите ошибку и нажмите Ctrl+Enter