e------------------------------------------------      
b--17--15--12--10--8—6--5s7—9s7--17--15--13-11-15 
g--------------------------------------------      
d--------------------------------17--15--13-11-15 
a--17--15--12--10--8—6--5s7-9s7------------------ 
d------------------------------------------------ 

e----------------------------------------------15--------------------
b--17--15--12--10--8--6--5s7-9s7---17--15--12------17------17----17--
g----------------------------------------------15--------------------
d----------------------------------17--15--12------17---17----17-----
a--17--15--12--10--8--6--5s7-9s7-------------------------------------
d--------------------------------------------------------------------


Текст, аккорды и табулатура для песни "Your Body Is A Wonderland", исполняет "Mayer John".
Используемые в песне аккорды можно найти в разделе Как брать аккорды. Аккорды для шестиструнной гитары. Другие песни можно найти на нашем сайте, воспользовавшись алфавитным указателем вверху страницы.


 
Ошибка в тексте? Выделите ошибку и нажмите Ctrl+Enter