This is the best song to pick up chicks with.

This is the better way to play it also


x = Palm Mute


Intro
-------------------------------------------------------------------------
-----6--x---6---x------6---x---6---x-----6---x---6-----------------------
-----5--x---5---x------5---x---5---x-----5---x---5-----------------------
--3-----x---3---x-----------------------------------Play Four Times------
--------------------3------x---3---x-------------------------------------
---------------------------------------6-----x---6-----------------------


-------------------------------------------------------------------------
-----6--x---6---x------6---x---6---x-----6---x---6-----------------------
-----5--x---5---x------5---x---5---x-----5---x---5-----------------------
--3-----x---3---x--------------------------------------------------------
--------------------3------x---3---x-------------------------------------
---------------------------------------6-----x---6-----------------------
We     got     this     afternoon 


-------------------------------------------------------------------------
-----6--x---6---x------6---x---6---x-----6---x---6-----------------------
-----5--x---5---x------5---x---5---x-----5---x---5-----------------------
--3-----x---3---x--------------------------------------------------------
--------------------3------x---3---x-------------------------------------
---------------------------------------6-----x---6-----------------------
You    got     this    room   for   Two


-------------------------------------------------------------------------
-----6--x---6---x------6---x---6---x-----6---x---6-----------------------
-----5--x---5---x------5---x---5---x-----5---x---5-----------------------
--3-----x---3---x--------------------------------------------------------
--------------------3------x---3---x-------------------------------------
---------------------------------------6-----x---6-----------------------
One   thing   that   i'm   left   to   do 


-------------------------------------------------------------------------
-----6--x---6---x------6---x---6---x-----6---x---6-----------------------
-----5--x---5---x------5---x---5---x-----5---x---5-----------------------
--3-----x---3---x--------------------------------------------------------
--------------------3------x---3---x-------------------------------------
---------------------------------------6-----x---6-----------------------
Discover   Me     Discovering    you


-------------------------------------------------------------------------
-----6--x---6---x------6---x---6---x-----6---x---6-----------------------
-----5--x---5---x------5---x---5---x-----5---x---5-----------------------
--3-----x---3---x--------------------------------------------------------
--------------------3------x---3---x-------------------------------------
---------------------------------------6-----x---6-----------------------
One   mound   to    every    answer 


-------------------------------------------------------------------------
-----6--x---6---x------6---x---6---x-----6---x---6-----------------------
-----5--x---5---x------5---x---5---x-----5---x---5-----------------------
--3-----x---3---x--------------------------------------------------------
--------------------3------x---3---x-------------------------------------
---------------------------------------6-----x---6-----------------------
your      skin     like      porcelain


-------------------------------------------------------------------------
-----6--x---6---x------6---x---6---x-----6---x---6-----------------------
-----5--x---5---x------5---x---5---x-----5---x---5-----------------------
--3-----x---3---x--------------------------------------------------------
--------------------3------x---3---x-------------------------------------
---------------------------------------6-----x---6-----------------------
One      pair     of     candy     lips


-------------------------------------------------------------------------
-----6--x---6---x------6---x---6---x-----6---x---6-----------------------
-----5--x---5---x------5---x---5---x-----5---x---5-----------------------
--3-----x---3---x--------------------------------------------------------
--------------------3------x---3---x-------------------------------------
---------------------------------------6-----x---6-----------------------
And     your     Bubble    Gum    Tounge 


----5---3---3-------------5---3---3--------------------------------------
-------------------------------------------------------------------------
----5---5---5-------------5---5---5--------------------------------------
-------------------------------------------------------------------------
-------------------------------------------------------------------------
-6---------------------3-------------------------------------------------
cause if you want love   we'll make it


----5---3---3-------------5---3---3--------------------------------------
-------------------------------------------------------------------------
----5---5---5-------------5---5---5--------------------------------------
-------------------------------------------------------------------------
-------------------------------------------------------------------------
-6---------------------3-------------------------------------------------
swim in a deep sea     of blankets


----5---3---3-------------5---3---3--------------------------------------
-------------------------------------------------------------------------
----5---5---5-------------5---5---5--------------------------------------
-------------------------------------------------------------------------
-------------------------------------------------------------------------
-6---------------------3-------------------------------------------------
take all your big plans and break 'em


-----------------------------------------------------------3-------------
----3---x---3---x------5---x---5---x-------6---x---6---x-----------------
----5---x---5---x------5---x---5---x-------5---x---5---x---5-------------
-------------------------------------------------------------------------
-------------------------------------------------------------------------
-3------x---3---x---5------x---5---x----6------x---6---x---3-------------
This    is     bound    to    be   a    while           Your Body 

-------------------------------------------------------------------------
-----6--x---6---x------6---x---6---x-----6---x---6-----------------------
-----5--x---5---x------5---x---5---x-----5---x---5-----------------------
--3-----x---3---x--------------------------------------------------------
--------------------3------x---3---x-------------------------------------
---------------------------------------6-----x---6-----------------------
is  a  wonderland                     Your    body     

-------------------------------------------------------------------------
-----6--x---6---x------6---x---6---x-----6---x---6-----------------------
-----5--x---5---x------5---x---5---x-----5---x---5-----------------------
--3-----x---3---x--------------------------------------------------------
--------------------3------x---3---x-------------------------------------
---------------------------------------6-----x---6-----------------------
is a wonder   I'll   use   my   hands


-------------------------------------------------------------------------
-----6--x---6---x------6---x---6---x-----6---x---6-----------------------
-----5--x---5---x------5---x---5---x-----5---x---5-----------------------
--3-----x---3---x--------------------------------------------------------
--------------------3------x---3---x-------------------------------------
---------------------------------------6-----x---6-----------------------
something about the way the hair falls in your face


-------------------------------------------------------------------------
-----6--x---6---x------6---x---6---x-----6---x---6-----------------------
-----5--x---5---x------5---x---5---x-----5---x---5-----------------------
--3-----x---3---x--------------------------------------------------------
--------------------3------x---3---x-------------------------------------
---------------------------------------6-----x---6-----------------------
 love the shape you take when crawling towards the pillow case


-------------------------------------------------------------------------
-----6--x---6---x------6---x---6---x-----6---x---6-----------------------
-----5--x---5---x------5---x---5---x-----5---x---5-----------------------
--3-----x---3---x--------------------------------------------------------
--------------------3------x---3---x-------------------------------------
---------------------------------------6-----x---6-----------------------
you tell me where to go though I might leave to find it


-------------------------------------------------------------------------
-----6--x---6---x------6---x---6---x-----6---x---6-----------------------
-----5--x---5---x------5---x---5---x-----5---x---5-----------------------
--3-----x---3---x--------------------------------------------------------
--------------------3------x---3---x-------------------------------------
---------------------------------------6-----x---6-----------------------
I'll never let your head hit the bed without my hand behind it



----5---3---3-------------5---3---3--------------------------------------
-------------------------------------------------------------------------
----5---5---5-------------5---5---5--------------------------------------
-------------------------------------------------------------------------
-------------------------------------------------------------------------
-6---------------------3-------------------------------------------------
cause if you want love   we'll make it


----5---3---3-------------5---3---3--------------------------------------
-------------------------------------------------------------------------
----5---5---5-------------5---5---5--------------------------------------
-------------------------------------------------------------------------
-------------------------------------------------------------------------
-6---------------------3-------------------------------------------------
swim in a deep sea     of blankets


----5---3---3-------------5---3---3--------------------------------------
-------------------------------------------------------------------------
----5---5---5-------------5---5---5--------------------------------------
-------------------------------------------------------------------------
-------------------------------------------------------------------------
-6---------------------3-------------------------------------------------
take all your big plans and break 'em


-----------------------------------------------------------3-------------
----3---x---3---x------5---x---5---x-------6---x---6---x-----------------
----5---x---5---x------5---x---5---x-------5---x---5---x---5-------------
-------------------------------------------------------------------------
-------------------------------------------------------------------------
-3------x---3---x---5------x---5---x----6------x---6---x---3-------------
This    is     bound    to    be   a    while           Your Body 

-------------------------------------------------------------------------
-----6--x---6---x------6---x---6---x-----6---x---6-----------------------
-----5--x---5---x------5---x---5---x-----5---x---5-----------------------
--3-----x---3---x--------------------------------------------------------
--------------------3------x---3---x-------------------------------------
---------------------------------------6-----x---6-----------------------
is  a  wonderland                     Your    body     

-------------------------------------------------------------------------
-----6--x---6---x------6---x---6---x-----6---x---6-----------------------
-----5--x---5---x------5---x---5---x-----5---x---5-----------------------
--3-----x---3---x--------------------------------------------------------
--------------------3------x---3---x-------------------------------------
---------------------------------------6-----x---6-----------------------
is a wonder   I'll   use   my   hands



Solo 

------------------------------------------------------------------------      
--17--15--12--10--8—6--5s7—9s7--17--15--13-11-15----------------------- 
-----------------------------------------------------------------------      
--------------------------------17--15--13-11-15----------------------- 
--17--15--12--10--8—6--5s7-9s7----------------------------------------- 
-----------------------------------------------------------------------

----------------------------------------------15-----------------------
--17--15--12--10--8--6--5s7-9s7---17--15--12------17------17----17-----
----------------------------------------------15-----------------------
----------------------------------17--15--12------17---17----17--------
--17--15--12--10--8--6--5s7-9s7----------------------------------------
-----------------------------------------------------------------------


Текст, аккорды и табулатура для песни "Your Body Is A Wonderland", исполняет "Mayer John".
Используемые в песне аккорды можно найти в разделе Как брать аккорды. Аккорды для шестиструнной гитары. Другие песни можно найти на нашем сайте, воспользовавшись алфавитным указателем вверху страницы.


 
Ошибка в тексте? Выделите ошибку и нажмите Ctrl+Enter