Wheel
Words and Music by John Mayer

Album: Heavier Things
Transcribed by: Gabe
Email: [email protected]
AIM: JMFan70

This song is pretty easy to play, I have the actual way its played....and the
simplified version that is basically the same thing. I saw him play it live and
its really easy to play! Im not totally sure but I think he is using slight chorus
and lowered tone. So all of you who have strat or strat style guitars move your
5-way switcher to the 2 position from the top and set the second tone knob from
the top to 4 or 5.

Key:
h -Hammer On
p -Pull Off
x -Muted string
~ -Let ring
T -Thumb
/ -Slide Up
 -Slide Down
># -5-Way Switcher Up (Towards bridge) this will be followed by a number, the number 
which how many clicks or settings you have to move(down or up).
1)
e--------------------------------------------------------------------|
b-----------5-6-8--3/5-6-3-5------------5-6-5---53------------------|
g---------5------------------3-5-3-----x-------------5-3-2-----------|
d-----5-7-----------------------------x--------------------5-3-------|
a-5-8--------------------------------x-------------------------5-3-5-|
e--------------------------------------------------------------------|

                                 (2)
e--------------------------------------------------------------------|
b-----6---------6--6---6-----------------------------6---6-----------|
g---5---5-7---5----5h7-5------------------------5-7--5h7-5-----------|
d-----------8------------8-6h7-5----5-------5-8------------8-6h7-5---|
a--------------------------------8----5--8-------------------------8-|
e--------------------------------------------------------------------|
  (3)               (


Текст, аккорды и табулатура для песни "Wheel", исполняет "Mayer John".
Используемые в песне аккорды можно найти в разделе Как брать аккорды. Аккорды для шестиструнной гитары. Другие песни можно найти на нашем сайте, воспользовавшись алфавитным указателем вверху страницы.


 
Ошибка в тексте? Выделите ошибку и нажмите Ctrl+Enter