Covered In Rain
Words and Music by John Mayer

Transcribed by: Gabe
AIM: JMFan70
Email: [email protected]

This is a super easy song to play if you dont count all the improv solos he does.
He never plays the same solo for this song twice. The best I can do is give
you the soloing he uses. Depending on what version of this song you have I
tabbed out the solo. I have the live version. So thats what I used.


Key:
x -Muted String
b -Bend
r -Release
~ -Let Ring
/ -Slide Up
 -Slide Down
h -Hammer On
p -Pull Off


Intro Verse and Chorus

e------------------|
b-3--10--11--------|
g-0---x---x--------|
d-3--10--10--------|
a-1---8---8--------|
E-1---8---8--------|
This is the whole song but the pattern changed in each part a bit, so just listen for the change.


Solo (Common Live Version)

e--------------------------------3-------------------------------------------|
b-------------------------------3-6p3-6--------------------------------------|
g-5b6-5b6r5p3--5b7---5b6r5p3-5b6-------5b6r5p3-6p3-5b7--5b6-3---5b7-5b6r5-3--|
d--------------------------------------------------------------------------5-|
a----------------------------------------------------------------------------|
e----------------------------------------------------------------------------|

e----------------------------------------------------------------------------|
b-----------3-------------3-6b8-6~-----3-6b8r6-----3-6b8r6-6p3-6p3(1)-------|
g-----3-5-6---5b6-5~--3-5----------3-5---------3-5------------------5b6r5-3--|
d-3-5----------------------------------------------------------------------5-|
a----------------------------------------------------------------------------|
e----------------------------------------------------------------------------|


e--------------------------------------------|
b-6~--6p3---6--------------------------------|
g---------5---6p5p3---3-6p5p3---3~---3~------|
d-------------------5---------5----5----5----|
a--------------------------------------------|
e--------------------------------------------|
         |____________________| this part is played extremely fast.


Soloing Scale
e-------------------------------3-6------|
b--------------------------3-6-----------|
g-------------------3-5-6----------------|
d--------------3-5-----------------------|
a-------3-4-5----------------------------|
e--3-6-----------------------------------|
This is the G Minor Pentatonic scale he uses to play his Covered In Rain solos, so you 
improv off of that.


e---------------------------------------8-9-10-|
b---------------------------------8-11---------|
g---------------------------7-10---------------|
d-----------------8-10-11----------------------|
a-----------8-10-------------------------------|
e--8-9-10--------------------------------------|
He might be using this scale also but either one will work for ya!


Текст, аккорды и табулатура для песни "Covered In Rain", исполняет "Mayer John".
Используемые в песне аккорды можно найти в разделе Как брать аккорды. Аккорды для шестиструнной гитары. Другие песни можно найти на нашем сайте, воспользовавшись алфавитным указателем вверху страницы.


 
Ошибка в тексте? Выделите ошибку и нажмите Ctrl+Enter