Соло:
     C#m                    H                       A
E||----------------------|-----------------------|----------------------|
B||-------------------7--|--9------7-------------|----------------------|
G||--6----------8--9-----|-----------9-8---------|--6----------8--9--8--|
D||----------------------|------------------9----|----------------------|
A||----------------------|-----------------------|----------------------|
E||----------------------|-----------------------|----------------------|

                        C#m                    H
|--------------------|----------------------|-----------------------|
|---------------9----|-------------------7--|--9------7-------------|
|--6-----------------|--6----------8--9-----|-----------9-8---------|
|--------------------|----------------------|------------------9----|
|--------------------|----------------------|-----------------------|
|--------------------|----------------------|-----------------------|

       A                                       
-----------------------|--------------------||
-----------------------|---------------9----||
--6----8--9-8-6--------|--6-----------------||
-----------------------|--------------------||
-----------------------|--------------------||
-----------------------|--------------------||

C#m              G#m
Заблудившиеся странники
C#m              G#m
Нечужие на своей земле,
A                H
Но бродяги и изгнанники
A                H
В чьей-то жестокой игре.
C#m              G#m
Поклонившись четырем ветрам,
C#m              G#m
Шли на все четыре стороны.
A                H
Волки кровниками стали нам,
    A     G#m7  C#m
Да черные вороны.


Все пути давно исхожены
То ли к Богу, то ли от него...
Если мы уже не брошены -
Нам не добраться домой.
Позади руины да кресты.
Жизнь и смерть - порочная петля...
Даже если мы не прокляты,
Стонет от нас земля.

 E                H
Нам бы добраться домой
   C#m              G#m
В город янтарного света
 A              H
Через пустыни, лед и огонь,
 A              H
Через паденья и боль...
 E                H
Нам бы вернуться домой
   C#m              G#m
В город, стоящий у Солнца,
 A              H
Город, гда с нами встретятся вновь
 A              H
Вера, Надежда, Любовь!

Непорочные и грешеные
Шли себе дорогою одной,
Но глухие и ослепшие -
Каждый своею тропой.
Заблудившиеся странники
Нечужие на своей земле.
Но бродяги и изгнанники
Шли, повинуясь судьбе.


Текст, аккорды и табулатура для песни "Город, стоящий у солнца", исполняет "Маврин Сергей".
Используемые в песне аккорды можно найти в разделе Как брать аккорды. Аккорды для шестиструнной гитары. Другие песни можно найти на нашем сайте, воспользовавшись алфавитным указателем вверху страницы.


 
Ошибка в тексте? Выделите ошибку и нажмите Ctrl+Enter