Song: Weapon
Artist: Matthew Good Band
As tabbed by Joe Muggah

Tuned down 1/2 step


Verse (clean)
eb--------------------------0-----------------------------
Bb--------3--------0-----------------0--------------------
Gb------0--------0--------0--------0----------0--------0--
Db----4--------4--------2--------2----------2--------2----
Ab--5--------5--------3--------3----------2--------2------
Eb--------------------------------------0--------0--------

(continued)
eb--------------------------------------------------------
Bb--------------------------------------------------------
Gb--------0--------0--------------------------------------
Db------2--------2----------------------------------------
Ab----2--------2------------------------------------------
Eb--0--------3--------------------------------------------


Riff 1 (clean)
eb--------------------------------------------------------
Bb--------------------------------------------------------
Gb----------------------------------------------0---------
Db--------------------------------------------------------
Ab--------5h7------5h7-------------5h7------5h7-----------
Eb--0-0-0------0-0------0-0--0-0-0------0-0---------------


Riff 2 (with distortion)
eb--------------------------------------------------------
Bb--------------------------------------------------------
Gb--------------------------------------------------------
Db--------------------------------------------------------
Ab------5h7--7-7p5--7--------5h7--7-7p5--7--------5h7-----
Eb--0-0------------------0-0------------------0-0---------

(continued)
eb--------------------------------------------------------
Bb--------------------------------------------------------
Gb--------------------------------------------------------
Db----------5---------------------------------------------
Ab--7-7p5-7----------5h7--7-7p5--7------------------------
Eb---------------0-0--------------------------------------


Riff 3 (with distortion)
eb--------------------------------------------------------
Bb--------------------------------------------------------
Gb--------------------------------------------------------
Db---------------------------------------7^---------------
Ab------5h7--7-7p5--7--------5h7--7-7p5-----------5h7-----
Eb--0-0------------------0-0-------------------0-0--------

(continued)
eb--------------------------------------------------------
Bb--------------------------------------------------------
Gb--------------------------------------------------------
Db----------5---------------------------------------------
Ab--7-7p5-7----------5h7--7-7p5--7------------------------
Eb---------------0-0--------------------------------------


Chorus
eb-----0-0-0------0-0-0-----0-0-0--------------0-0-0------
Bb-----1-1-1------1-1-1-----1-1-1--------------0-0-0------
Gb-----0-0-0------0-0-0-----0-0-0--------------0-0-0------
Db--2--2-2-2--2-2-2-2-2--2--2-2-2-----------2--2-2-2------
Ab--3--3-3-3--3-3-3-3-3--3--3-3-3-----------2--2-2-2------
Eb---------------------------------2v--2v---0--0-0-0------

(continued)
eb------0-0-0-----0-0-0-----0-0-0-------------------------
Bb------0-0-0-----0-0-0-----0-0-0-------------------------
Gb------0-0-0-----0-0-0-----0-0-0-------------------------
Db--2-2-2-2-2--2--2-2-2--2--2-2-2-------------------------
Ab--2-2-2-2-2--2--2-2-2--2--2-2-2-------------------------
Eb--0-0-0-0-0--0--0-0-0--0--0-0-0-------------------------


Bridge
eb-----0-0-0-------0-0-0------0-0-0--------0-0-0----------
Bb-----3-3-3-------3-3-3------3-3-3--------3-3-3----------
Gb--2--2-2-2--2-2--2-2-2---2--2-2-2---2-2--2-2-2----------
Db--0--0-0-0--0-0--0-0-0---0--0-0-0---0-0--0-0-0----------
Ab--------------------------------------------------------
Eb--------------------------------------------------------

(continued)
eb-----0-0-0------0-0-0-----0-0-0-------0-0-0--0----------
Bb-----1-1-1------1-1-1-----1-1-1-------1-1-1--0----------
Gb-----0-0-0------0-0-0-----0-0-0-------0-0-0--0----------
Db--2--2-2-2--2-2-2-2-2--2--2-2-2---2-2-2-2-2--2----------
Ab--3--3-3-3--3-3-3-3-3--3--3-3-3---3-3-3-3-3--2----------
Eb---------------------------------------------0----------


Verse
Riff 1
Riff 2
Riff 3
Riff 2
Riff 3
Chorus
Bridge
Riff 1
Riff 2 (mild distortion)
Riff 2 (heavy distortion)
Riff 3
Riff 2
Verse

The verse in this song is awesome.


Текст, аккорды и табулатура для песни "Weapon", исполняет "Matthew Good Band".
Используемые в песне аккорды можно найти в разделе Как брать аккорды. Аккорды для шестиструнной гитары. Другие песни можно найти на нашем сайте, воспользовавшись алфавитным указателем вверху страницы.


 
Ошибка в тексте? Выделите ошибку и нажмите Ctrl+Enter