Song: Everything is Automatic 
Artist: Matthew Good Band 
Album: Underdogs 
    Tabbed by Steve 

 Verse 
G|---------------------|---------------------|-------------------------| 
D|---------------------|---------------------|-------------------------| 
A|---2-2-2-2-2-2-2-2---|---2-2-2-2-2-2-2-2---|-------------------7-----| 
E|---------------------|---------------------|---5-5-5-5-5-5-5-5-------| 

G|---------------------| 
D|---------------------| 
A|---------------------| 
E|---3-3-3-3-3-3-3-3---| 
  

 Chorus 
G|---------------|---------------|------------|------------|---------------------| 
D|---------------|---------------|------------|------------|---------------------| 
A|---------------|---------------|---5----5---|---5----5---|-------------2-------| 
E|---0--------0--|--0--------0---|------------|------------|---5---5---5---5-3---| 
  

 Bridges 
G|-------------------|---------------------|----------------|--------------------| 
D|-------------------|---------------------|----------------|--------------------| 
A|-------------------|---5---5-5----5-5-5--|----------------|--------------------| 
E|---0---0----0-0-0--|---------------------|---3---3-3-3-3--|---3---3-3-3-3-3-3--| 

 First time ending      Second time ending 
G|------------------------|--------------||----------------------|----------------| 
D|------------------------|--------------||----------------------|----------------| 
A|------------------------|--------------||----------------------|-------------5--| 
E|---6-6-6-6-6-6-6-6-6-6--|---6-6-6---0--||---6-6-6-6-6-6-6-6-6--|---6-6-6-6-6----| 
  

 Interlude 
G|----------|----------|----------|----------|----------| 
D|----------|----------|----------|----------|----------| 
A|---5------|-------0--|---5------|----------|----------| 
E|----------|----------|----------|-------5--|---3------| 
  

          It's not that hard to play or learn so you shouldn't have any trouble.  Questions and comments can be sent to [email protected] 

Peace Out 



Текст, аккорды и табулатура для песни "Everything Is Automatic", исполняет "Matthew Good Band".
Используемые в песне аккорды можно найти в разделе Как брать аккорды. Аккорды для шестиструнной гитары. Другие песни можно найти на нашем сайте, воспользовавшись алфавитным указателем вверху страницы.


 
Ошибка в тексте? Выделите ошибку и нажмите Ctrl+Enter