Intro
e-3-2-0-2- -----------------|
b-3-3-1-3- -----------------|
g-0-2-0-2- -5-5-4-5-4-------|
d-0-0-2-0- -----------7-5---|
a-2-0-3-0- -----------------|
E-3-x-x-x- -----------------|

You can Figure out the strumming pattern, it's just 3 major chords, g to d to c to d.

e--------------------------------|
b--------------------------------|
g-----7-7-7-7-5-5-5-4-5-7--------|
d-5-5-7-7-7-7-5-5-5-5-5-7--------|
a-5-5-5-5-5-5-3-3-3-2-3-5--------|
E-3-3----------------------------|
Verse ^

Chorus - (I i i i, am superman etc.)
e-------------------|
b-------------------|
g-5-5-----5-5-7-7---|
d-5-5-5-5-5-5-7-7---|
a-3-3-5-5-3-3-5-5---|
E-----3-3-----------|

Lead Lick
e----------------------------------------|
b----------------------------------------|
g-------------------------------5-4------|
d-x-5-5-5-5--5-5-5-5--5-5-5-5-----7-5----|
a----------------------------------------|
E----------------------------------------|

Lick before solo
e-8-7-8-10-8-7--------------|
b---------------10-8--------|
g---------------------------|
d---------------------------|
a---------------------------|
E---------------------------|

(Superman can, Superman can fly fly fly fly)
e------------------------------------------------------|
b------------------------------------------------------|
g-4-4-4-4-4-4-4-4-5-5--5-5----7-7-9-9-9-9-7-7-7-7-5----|
d-4-4-4-4-4-4-4-4-5-5--5-5----7-7-9-9-9-9-7-7-7-7-5----|
a-2-2-2-2-2-2-2-2-3-3--3-3----5-5-7-7-7-7-5-5-5-5-3----|
E------------------------------------------------------|


Текст, аккорды и табулатура для песни "Superman", исполняет "Matches".
Используемые в песне аккорды можно найти в разделе Как брать аккорды. Аккорды для шестиструнной гитары. Другие песни можно найти на нашем сайте, воспользовавшись алфавитным указателем вверху страницы.


 
Ошибка в тексте? Выделите ошибку и нажмите Ctrl+Enter