Band: The Matches (www.thematches.com)
Song: Audio Blood
Tabbed By: Jana

INTRO
e|-xxxxxxxx-22222222-11111111-------------
B|----------------------------------------
G|----------------------------------------
D|----------------------------------------
A|----------------------------------------
E|----------------------------------------

VERSE
e|--------------------------------------------------------------
B|--------------------------------------------------------------
G|------------------77xx77xx77xx77xx----------------------------
D|-44xx44xx44xx44xx-77xx77xx77xx77xx-77xx77xx77xx77-------------
A|-44xx44xx44xx44xx-55xx55xx55xx55xx-77xx77xx77xx77-------------
E|-22xx22xx22xx22xx------------------55xx55xx55xx55-------------

PRE-CHORUS
e|------------------xxxxxxxx----|-55555----------
B|------------------xxxxxxxx----|----------------
G|------------------xxxxxxxx----|----------------
D|---22--22--11--11-xxxxxxxx--2x|------4/77---4x-
A|-44--44--44--44---xxxxxxxx----|------4/77------
E|------------------xxxxxxxx----|------2/55------

CHORUS
e|---------------------55--55--55--55-|-----------
B|------------------------------------|-----------
G|-77777777-44444444------------------|--77-------
D|-77777777-44444444-77--77--77--77-2x|--77-33-2--
A|-55555555-22222222-77--77--77--77---|--55-33-2--
E|-------------------55--55--55--55---|-----11-0--

VERSE
PRE-CHORUS
CHORUS

BRIDGE
e|-----------------|-----------------------
B|-----------------|----------22222222-----
G|-----4-2---4-2---|----------22222222-----
D|-4--4442-44442-4x|-44444444-22222222-4x--
A|-4--4240-44240---|-44444444--------------
E|-2--2-2--22-2----|-22222222--------------

CHORUS

LITTLE PART(palm mute)
e|----------
B|----------
G|----------
D|-22222222-
A|-22222222-
E|-00000000-

OUTRO (same pattern as Teen Spirit by Nirvana)
e|------------------
B|------------------
G|------------------
D|-7-7-1010-3-3-55--
A|-7-7-1010-3-3-55--
E|-5-5-8-8--1-1-33--


Текст, аккорды и табулатура для песни "Audio Blood", исполняет "Matches".
Используемые в песне аккорды можно найти в разделе Как брать аккорды. Аккорды для шестиструнной гитары. Другие песни можно найти на нашем сайте, воспользовавшись алфавитным указателем вверху страницы.


 
Ошибка в тексте? Выделите ошибку и нажмите Ctrl+Enter