-------------------------------------------------------------------------------
			     Disease (Acoustic) - Matchbox Twenty
-------------------------------------------------------------------------------
Tabbed by: Tom Sprankling
Email: [email protected]

Tuning: Standard tuning, capo on 3rd. (You can get away with tuning it down
	helf a step, also with the capo on 3rd)

Intro 

e|-------0--x-x--------------------------------------------------------------|
B|-------0--x-x--------------------------------------------------------------|
G|-------0--x-x--------------------------------------------------------------|
D|--0h2--2--x-x-1------------------------------------------------------------|
A|--2----2--x-x-2------------------------------------------------------------|
E|--0----0--x-x-0------------------------------------------------------------|

Verse 1 and Verse 2 

e|---------------------------------------------------------------------------|
B|-----0-0-------------------1--1h0h1--1-------------------------------------|
G|-----0-0-----x-------------2--2------2---0--0--x---------------------------|
D|-----2-2--1--x--x-3-----2--2--2------2---2--2--x--1------------------------|
A|-----2-2--2--x----------0------------0---2--2--x--2------------------------|
E|--0-------0--x---------------------------0--0--x--0------------------------|

Pre - Chorus
          Strum chords
e|--0-----2-----0------0----0-----2------------------------------------------|
B|--1-----3-----0------1----1-----3------------------------------------------|
G|--0-----2-----0------2----0-----2------------------------------------------|
D|--2-----0-----2------2----2-----0------------------------------------------|
A|--3-----------2------0----3------------------------------------------------|
E|--0-----------0-----------0------------------------------------------------|
 

Chorus
	  Strum chords
e|--0----0-----3-------------------------------------------------------------|
B|--0----1-----5-------------------------------------------------------------|
G|--0----2-----5-------------------------------------------------------------|
D|--2----2-----5-------------------------------------------------------------|
A|--2----0-----3-------------------------------------------------------------|
E|--0----------3-------------------------------------------------------------|

Bridge
         strum chords
e|-------------0------0-------------0-----0----------------------------------|
B|--1--0--1----0------0---1--0--1---0-----0----------------------------------|
G|--2--2--2----0------0---2--2--2---0-----0----------------------------------|
D|--2--2--2----2--1---2---2--2--2---2--1--2--1--1--1--1--1-------------------|
A|--0--0--0----2--2---2---0--0--0---2--2--2--2--2--2--2--2-------------------|
E|----------------0--------------------0-----0--0--0--0--0-------------------|

Outro
      strum chords
e|-----0--0-------------0--0-------------------------------------------------|
B|-----0--0-------------0--0----------------0--------------------------------|
G|-----0--0-------------0--0----------------0--------------------------------|
D|-----2--2---1--1------2--2---1--1-~--1-1--2--------------------------------|
A|-----2--2---2--2------2--2---2--2-~--2-2--2--------------------------------|
E|--0---------0--0---0---------0--0-~--0-0--0--------------------------------|

Obviously this is not a great transcription of the song, but id you listen to
the song and use the general chord layout i have provided, you will be able
to play the song as well rob thomas himself.

If you can improve this tab then please e-mail me with changes, i know it's not
it's not totally correct but we can work on it.

Enjoy!!!

Intro
verse
Pre-chorus
Chorus
Verse
Pre-chorus
Chorus
Bridge
Chorus
Outro


| /  slide up
|   slide down
| h  hammer-on
| p  pull-off
| ~  vibrato
| +  harmonic
| x  Mute note
===========================================================================


Текст, аккорды и табулатура для песни "Disease Acoustic", исполняет "Matchbox 20".
Используемые в песне аккорды можно найти в разделе Как брать аккорды. Аккорды для шестиструнной гитары. Другие песни можно найти на нашем сайте, воспользовавшись алфавитным указателем вверху страницы.


 
Ошибка в тексте? Выделите ошибку и нажмите Ctrl+Enter