Строй Ре
2 гитары для одной


интро:                 ______________________    ________________________
                       |1.2.3.                   |4.
---||-------8---------|-------5--------5-----5-||----------5---------------||
---||--3~------10-----|----3--------4----/7----||-------7------------7--10-||
---||*-2~----------8--|-2--------2------------*||----8------------8--------||
-1-||*-0~-------------------------*||-8-----------10-----------||
---||--0~---------------------6----||-6~-----------------------||
---------------||

слова
||------10~~----------|----------10------|---------10----------||
||-----10~~~------------11---|------11----11-------||
||*---11~~~~-----------------|----8----------8----*||
||*--12~~~~~----------|-------13---------|-8------------------*||
||--12~~~~~~----------|----13----------------------||
||-10~~~~~~~-------10-|-11------------10-------|-111010101110||

припев
-------------------------------|--------
||--------6------------5------------6------------3-----|--------
||------7---7------------6------------7------------3---|--------
||---7--------7------7-----7------8-----8------5-----5-|--------
||-5---------------7------------8------------5---------|--------
|----5------------6------------3-----------|--------

Fill (играется на последнюю строчку второго куплета)
-----------------------
||----------1--------1-------------------------
||----3--3-----3-----|-----3--3-----3-----|--3---------3---------------
||-1--------------1-----------|-----7---------7------------
|--------|--3--------------3--|--------5---------5---------
-----------------------


Текст, аккорды и табулатура для песни "Земля", исполняет "Маша и Медведи".
Используемые в песне аккорды можно найти в разделе Как брать аккорды. Аккорды для шестиструнной гитары. Другие песни можно найти на нашем сайте, воспользовавшись алфавитным указателем вверху страницы.


 
Ошибка в тексте? Выделите ошибку и нажмите Ctrl+Enter