D|-7--7-5---7-8-----7--7-5---7----8787-| Этот рифф играется между 1 и 2
A|--------8-----7----------8---8-------| куплетом и в припеве.

B|-106---68-8^9-8^9-8^9-8^9--| Этот рифф играется во вступлении и
                                 иногда в куплетах.
Вступление: Dm F A# Gm

 Dm        F      A#7      Gm
  Открой мне окно, зайди в эти двери,
  Предстань в образе любви.
  Скажи мое имя, не дай мне поверить
  И стань навсегда моим.

  Возьми капли ливня и слей слезы моря,
  Создай логово воды.
  Начни с новой ноты, согни ключ минора,
  Как мою линию судьбы.

    D5  F5         A#5  G5		
    Я пленница свобо-о-ды,		В припеве соло-гитара играет
    Ты узник светлой тьмы.              первый рифф почти в унисон
    Там склоны небосвода                с голосом.
    Где обитаем мы.

  Задень небо дланью, земные ладони
  За день кругом обойди.
  Сожми дрожь желаний, сомни холод молний,
  И свой свет освободи.


    Я пленница свободы,
    Ты узник светлой тьмы.
    Там склоны небосвода
    Где обитаем мы.

   A#m               F   A          A#m  Dm F
  Ты дальше той звезды, выше солнца и луны,
   A#m              F            A5     A#5 D5 C5
  Ты ближе, чем бойцы гибели напрасной.
   A#5                F5  A5         A#5
  Ты дальше, чем звезда, выше, чем моя тоска.

      Соляк.  D5 F5 A#5 G5

    Я пленница свободы,
    Ты узник светлой тьмы.
    Там склоны небосвода
    Где обитаем мы.


Соло (может где-нибудь слажаюсь):

E------------------------|
B|-9^10--10----x-x-6---3-1---1-6-8-3-|
G--------------2---------|

E|-/13^14-14-14-14-10------13--------|
B---------6-8------------|
G-----------------12--12-|

E|-13-12--7----13-12--7----15-12-7---|
B------------------------|
G------------------------|

E------------------------|
B|----10-----------------------------|
G|-10----10-9---------------------3--|
D-10-5-3-0---0--3--5-----|

Бас (Я подбирал на гитаре и таблатуру даю гитарную):

D-------3------------------------5-| | Эти два риффа
A|-5---5-3-0-------------1---1-------------5---| | играются в 
E1--1-1---1---------3--3-3---3-----| | куплетах 
                                                 | поочередно.
D-------3--------------------5-3-0-| | В первый куплет
A|-5---5-3-0-------------1---1-----------------| | бас вступает не
E1--1-1---1---------3--3-3---------| | сразу...

D|-3/5-3-0---| С этой фигни начинается бас
A|---------3-| в первом куплете. Подом играется
E| вышеуказанные риффы.

D|------| Эта туфта играется в проигрыше
A|-3-55-| несколько раз между первым и 
E|------| вторым куплетом.

D3-5-| Это играется после
A|-----1--1------| проигрыша и перед
E|-1-3-----------| новым куплетом

Весь остальной бас играется либо по
нотам, либо простыми обыгровками.


	
	
	        
Комментарий автора: Вроде бы все... Как я долго ее подбирал... наверное, часа полтора.

Текст, аккорды и табулатура для песни "Пленница", исполняет "Маша и Медведи".
Используемые в песне аккорды можно найти в разделе Как брать аккорды. Аккорды для шестиструнной гитары. Другие песни можно найти на нашем сайте, воспользовавшись алфавитным указателем вверху страницы.


 
Ошибка в тексте? Выделите ошибку и нажмите Ctrl+Enter