T1: Tim Hogarth, [email protected], Ricky Martin, Livin la vida loca
 solo, 1999 

 S1: other tab didn't have it, Ricky Martin 

 Livin la vida loca guitar solo 

 Tune down 1 1/2 steps low to high C# F# B E G# C# 

 Heres the solo: 

 C#---------------------------------------------------------------------------------
 G#---------------------------------------------------------------------------------
 E----------------------------------------------0-----------------------------------
 B---------------------------------------------------2---------2--0-----------------
 F#-------------------------------0-0-0-0-0-2---------------------------------------
 C#---0---0-0-3-5-0-5-5--3-5---3------------------------------------3-0-3----0---0--


 C#------------------------------------0--0--0--0--0-------------0-----0--3--0------
 G#------------------------------------3--3--3--3--3--0--3--5-------5-----------3--5
 E----------------------------------------------------------------------------------
 B-------------------------2--------------------------------------------------------
 F#---------------------------------------------------------------------------------
 C#-0-0-3-5-3-5-5----3--0--------0--0-----------------------------------------------



 That's the whole solo. Just listen to the song to see how it goes. 
 The other kids tab of the song was really bad. No solo at all. 


Текст, аккорды и табулатура для песни "Livin La Vida Loca", исполняет "Martin Ricky".
Используемые в песне аккорды можно найти в разделе Как брать аккорды. Аккорды для шестиструнной гитары. Другие песни можно найти на нашем сайте, воспользовавшись алфавитным указателем вверху страницы.


 
Ошибка в тексте? Выделите ошибку и нажмите Ctrl+Enter