Artist: The Mars Volta
Song: Televators
Tabber: Andrew Biles

The lead part for the chorus has the chord changes written above the tab just to help
a bit more with the timing.  The chords for the chorus have a bit of timing on, but
let the Gm6 ring on still whilst you play the A# note.  The order to the song is
simple, and I've put the times above the pieces incase you can't work it out.

Standard Tuning

Intro/Verse - 0:36, 1:11 & 2:46
|---------------------------------------------------------------------------------------|
|---------------------------------------------------------------------------------------|
|---------------------------------------------------------------------------------------|
|-4-------------------------------------------------------------------------------------|
|-5------------------------------------------5------------------------------------------|
|--------------------------------------------3------------------------------------------|
| Rhythm - Distortion & fast delay
|
|---------------------------------------------------------------------------------------|
|---------------------------------------------------------------------------------------|
|------------------------------------------------------4----------4----------4----------|
|-4---------4----------4----------4----------5---------5----------5----------5----------|
|-5---5---5------5---5------5---5------5---5-5---5---5------5---5------5---5------5---5-|
|-7-7---7------7---7------7---7------7---7---3-3---3------3---3------3---3------3---3---|
| Lead 1


0:48 & 2:22
|---------------------------------------------------------------------------------------|
|---------------------------------------------------------------------------------------|
|---------------------------------------------------------------------------------------|
|-4-------------------------------------------------------------------------------------|
|-5------------------------------------------5------------------------------------------|
|--------------------------------------------3------------------------------------------|
| Rhythm
|
|---------------------------------------------------------------------------------------|
|---------------------------------------------------------------------------------------|
|------------------------------------------------------4----------4----------4----------|
|-4---------4----------4----------4----------5---------5----------5----------5----------|
|-5---5---5------5---5------5---5------5---5-5---5---5------5---5------5---5------5---5-|
|-7-7---7------7---7------7---7------7---7---3-3---3------3---3------3---3------3---3---|
| Lead 1
|
|-9--------------7-9-7-5-----------------7-9----------------7-9-7-5-----------------7-9-|
|---------------------------------------------------------------------------------------|
|---------------------------------------------------------------------------------------|
|---------------------------------------------------------------------------------------|
|---------------------------------------------------------------------------------------|
|---------------------------------------------------------------------------------------|
  Lead 2 - Distortion - Tremolo picked


Chorus - 1:58, 3:33 & 4:43
|-0--------0---------0--------0---------0--------0---------0--------------------|
|-0--------3----2----0--------3----2----0--------3----2----0----8-----12--------|
|-4--------3---------4--------3---------4--------3---------0----9-----11----12--|
|-2--------0---------2--------0---------2--------0---------2----9-----14----12--|
|-2--------x---------2--------x---------2--------x---------2----7-----14----10--|
|-0--------3---------0--------3---------0--------3---------0--------------------|
  Rhythm

  Em                  Gm6        A#
|-0----------0-----------------------------|
|-5---5------5---5-----3---3-----2---2-----|
|---4---4------4---4-----4---4-----4---4---|
|-0-------0--0-------0-4-------4-4-------4-|
|------------------------------------------|
|------------------------------------------|
 Lead (chorus)

Bridge - 3:56
|---------------------------------------------------------------------------|
|--------------------------------------8---------8---12-7---------5---------|
|-7---------7---11-6---------6---6---7-----0---0------------7---7-----7---7-|
|-----0---0------------0---0------------------------------------------------|
|--------------------------------------7-7---7-----7-10-7-7---7---5-5---5---|
|-7-7---7-----7-10-5-5---5-----5---5----------------------------------------|


Outro - 5:08
|---|-------------------------------------------------------|
|---|-------------------------------------------------------|
|---|-------------------------------------------------------|
|-4-|---------4----------4----------4----------4----------4-|
|-5-|---5---5------5---5------5---5------5---5------5---5---|
|-7-|-7---7------7---7------7---7------7---7------7---7-----|

any questions? [email protected]
__________________________________
Lyrics (www.anysonglyrics.com):

Just as he hit
The ground
They lowered a tow that
Stuck in his neck to the gills
Fragments of sobiquets
Riddle me this
Flinch stitcheing
Aureole
Stalk the ground
Stalk the ground

You should have seen
The curse that flew right by you
Page of concrete
Stained walks crutch in hobbled sway
Autodafe
A capulary hint of red

Only this manupod
Crescent in shape has escaped

The house half the way
Fell empty with teeth
That split both his lips
Mark these words
One day this chalk outline will circle this city
Was he robbed of the asphalt that cushioned his face
A room colored charlatan
Hid in a safe
Stalk the ground
Stalk the ground

You should have seen
The curse that flew right by you
Page of concrete
Stain walks crutch in hobbled sway
Autodafe
A capulary hint of red

Only this manupod
Crescent in shape has escaped

Pull the pins
Save your grace
Mark these words
On his grave

You should have seen
The curse that flew right by you
Page of concrete
Stain walks crutch in hobbled sway
Autodafe
A capulary hint of red
Everyone knows the last toes are
Always the coldest to go


Текст, аккорды и табулатура для песни "Televators", исполняет "Mars Volta".
Используемые в песне аккорды можно найти в разделе Как брать аккорды. Аккорды для шестиструнной гитары. Другие песни можно найти на нашем сайте, воспользовавшись алфавитным указателем вверху страницы.


 
Ошибка в тексте? Выделите ошибку и нажмите Ctrl+Enter