-Intro-
G|-------------------------------------------------------------|
D|-------------------------------------------------------------|
A|-------5-----10-9-8---8-6-5----------------------------------|
E|-7---7---8--------------------4-6-------5-----10-9-8---8-6-5-|
B|----------------------------------7---7---8------------------|

G|-------------------------------------|
D|-------------------------------------|
A|-----------5-------------------------|
E|-----7---7---8-------------------4-6-|
B|-4-6-------------8-7-6---6-4-3-------|

-Verse-
G|---------------------------------|
D|---------------------------------|
A|-------5-------------------------|
E|-7---7---8-------------------4-6-|
B|-------------8-7-6---6-4-3-------|

G|---------------------------------|
D|---------------------------------|
A|-------5-------------------------|
E|-7---7---8-------------------3---|
B|-------------8-7-6---6-4-3-------|

-Chorus-
G|---------------------------------------------------------------------------------------|
D|-----------3-----------------------1-1-1--------------3----------------------1-1-1-2---|
A|-3-3-X-3-X---------------1-1-X-1-X-------X-3-3-X-3--X----------32-1-1-X-1-X----------1-|
E|-------------X-1-1-1-1-3--------------------------------X-1-1-4------------------------|
B|---------------------------------------------------------------------------------------|

G|------------------------------------------------------------------------------------|
D|-----------3-----------------------1-1-1-------------3------------------------------|
A|-3-3-X-3-X---------------1-1-X-1-X-------X-3-3-X-3-X--------------------------------|
E|-------------X-1-1-1-1-3-------------------------------X-1-1-1-1-3-4-4-4-X-4-4-3-1/-|
B|------------------------------------------------------------------------------------|

-Verse-
-Chorus-
-Post-Chorus-
G|-----------------------------------|
D|-----------------------------------|
A|-------5---------------------------|
E|-7---7---8-------------------------|
B|-------------8-7-6---6-4-3---3-3-3-|

-Bridge-
G|-------------------------------------------------------------------------|
D|-------------------------------------------------------------------------|
A|-------------------------------------------------------------------------|
E|-------------------------------------------------3h3-3-3-3-3-3-3-3-3-3-3-|
B|-6h6-6-6-4h4-4-4-0h0-0-0-1h1-1-4-6h6-6-6-4h4-4-4-------------------------|

-Outro-
G|---------------------------------------------------------------------------------------|
D|-----------3-----------------------1-1-1--------------3----------------------1-1-1-2---|
A|-3-3-X-3-X---------------1-1-X-1-X-------X-3-3-X-3--X----------32-1-1-X-1-X----------1-|
E|-------------X-1-1-1-1-3--------------------------------X-1-1-4------------------------|
B|---------------------------------------------------------------------------------------|

G|----------------------------------------------------------------------------------|
D|-----------3-----------------------1-1-1-------------3----------------------------|
A|-3-3-X-3-X---------------1-1-X-1-X-------X-3-3-X-3-X------------------------------|
E|-------------X-1-1-1-1-3-------------------------------X-1-1-1-1-3-4-4--4-4--7--7-|
B|----------------------------------------------------------------------------------|


Текст, аккорды и табулатура для песни "This Love", исполняет "Maroon 5".
Используемые в песне аккорды можно найти в разделе Как брать аккорды. Аккорды для шестиструнной гитары. Другие песни можно найти на нашем сайте, воспользовавшись алфавитным указателем вверху страницы.


 
Ошибка в тексте? Выделите ошибку и нажмите Ctrl+Enter