Author/Artist: Bob Marley
Title: Buffalo Soldier
Album: Legend
Transcribed by: Kyle Corrigan
Email: [email protected]

[email protected]-------------
-5-5-5-5----------2-2-2-2-----------------------------------------------------
-6-6-6-6----------2-2-2-2-----------------------------------------------------
-7-7-7-7----------5-5-5-5-----------------------------------------------------
-7-7-7-7----------5-5-5-5-----------------------------------------------------
-5-5-5-5----------2-2-2-2-----------------------------------------------------
 Buffalo soldier, Dreadlocked Rasta(and so on untill......)                   

-5-5-5-5-5-3-2----------------------------------------------------------------
-6-5-6-5-5-3-2----------------------------------------------------------------
-7-7-7-7-7-4-2----------------------------------------------------------------
-7-7-7-7-7-5-5----------------------------------------------------------------
-5-5-5-5-5-5-5----------------------------------------------------------------
---5---5-5-3-2----------------------------------------------------------------
 When I analyze the stench.......                                             

-5-5-5-5-5-2-2-5--------------------------------------------------------------
-5-5-5-5-5-2-2-5--------------------------------------------------------------
-7-7-7-7-7-2-2-7--------------------------------------------------------------
-7-7-7-7-7-5-5-7--------------------------------------------------------------
-5-5-5-5-5-5-5-5--------------------------------------------------------------
-5-5-5-5-5-2-2-5--------------------------------------------------------------
 woy woy woy, woy woy woy, woy woy woy,yo yo  yo.


Текст, аккорды и табулатура для песни "Buffalo Soldier", исполняет "Marley Bob".
Используемые в песне аккорды можно найти в разделе Как брать аккорды. Аккорды для шестиструнной гитары. Другие песни можно найти на нашем сайте, воспользовавшись алфавитным указателем вверху страницы.


 
Ошибка в тексте? Выделите ошибку и нажмите Ctrl+Enter