Sexy (Marius M?ller-Westernhagen) - Solopart

The whole thing is played with dropped D-tuning! I've tabbed it 99,9 % correctly. If there are any 
or the need to have it as Guitar Pro-File, send me a comment to

[email protected]


[email protected]---3--3--|
B||----------------------|----------------------|-------------------3--3--|
G||------5b---5r---3--0--|------0----0--3----5b-|----5--3--5--3--0--------|
D||----------------------|----------------------|-------------------------|
A||----------------------|----------------------|-------------------------|
D||----------------------|----------------------|-------------------------|

--3----3--3--3----3-----|-----------------------|-----------------------6--|
--3----3--3--3----3-----|-----------------------|--8--6--------6-----------|
---------------------5b-|----5p3-5--3--------7--|--------7--7-----7--7-----|
------------------------|-----------------------|--------------------------|
------------------------|-----------------------|--------------------------|
------------------------|-----------------------|--------------------------|

--------5------------------|----------------------|--------------------------||
-----------------8---------|----------------------|--------------------------||
--7--7-----5/-7-----75-3--|--5b---5----3--0------|--------------------------||
---------------------------|----------------------|--3--2--0-----------------||
---------------------------|----------------------|-----------3--2--0--------||
---------------------------|----------------------|--------------------3r-0--||


Текст, аккорды и табулатура для песни "Sexy", исполняет "Marius Muller Westernhagen".
Используемые в песне аккорды можно найти в разделе Как брать аккорды. Аккорды для шестиструнной гитары. Другие песни можно найти на нашем сайте, воспользовавшись алфавитным указателем вверху страницы.


Слушать онлайн Sexy


A-Type PlayerSexy на Яндекс.Музыке


 
Ошибка в тексте? Выделите ошибку и нажмите Ctrl+Enter