Valentine’s Day (live) by Marilyn Manson
Guitarist: John5
Album: Live
Dif.: 5

Intro/Verse/Interlude
G|-----10---8---7-8--|---|---|-----10---8---7-----|
D|---9----9---9------|-%-|-%-|---9----9---9---9---|
A|-8-----------------|---|---|-8------------------|

Pre-Chorus (“Flies……….. Are…………. Waiting………..”)
G|-5-------7-------8---------13---|
D|-5-------7-------8---------13---|
A|-3-------5-------6---------11---|

Chorus/Outro(“In the shadow of……”)
D|-3----6-5-3-3-R----------6-5-3-3--X-X--|
A|-3----6-5-3-3-R----------6-5-3-3--X-X--|
E|-1----4-3-1-1-R----------4-3-1-1--X-X--|

Chorus P2 (“Slit our wrists…….”)
D|-8------11-------3-R-------8------11-------|
A|-8------11-------3-R-------8------11-------|
E|-6-------8-------1-R-------6-------8-------|

Verse 2 (“Some of us are……”)
G|-----10---8---7-8--|-----10---8---7-----|
D|---9----9---9------|---9----9---9---9---|
A|-8-----------------|-8------------------|


Song Structure: 
Drums
Intro
Verse (“She was the color……”)
Pre-Chorus
Chorus
Chorus P2
Interlude
Rest For Bass Verse Shit (“I saw the…..”)
Verse 2
Pre-Chorus
Chorus
Chorus P2
Outro (“In the shadow……..”)

Nuff bout that one. Not much too different 
from the original. John5 does a little 
improvisation on chorus p2 which I really 
like. But that’s about it. If you have any
comments, corrections, suggestions or requests feel free to email me 
at [email protected]


Текст, аккорды и табулатура для песни "Valentines Day Live", исполняет "Marilyn Manson".
Используемые в песне аккорды можно найти в разделе Как брать аккорды. Аккорды для шестиструнной гитары. Другие песни можно найти на нашем сайте, воспользовавшись алфавитным указателем вверху страницы.


 
Ошибка в тексте? Выделите ошибку и нажмите Ctrl+Enter