President Dead - Marilyn Manson

By: Jon Craven ([email protected])
For questions, comments, feedback, an outline of the timing, write the above
address.

Notes:
  -Played with a pick.
  -The tempo seems between 76 and 77 bpm; using a metrinome, you'll notice it
seems off.

(4/4)(76 bpm)
Standard tuning

/ - slide up
. - sixteenth rest
* - note held for an eighth beat
R - quarter rest

Intro (verse 1/fill): (x2)(0:01)
|----------------|----------------|----------------|----------------|
|----------------|----------------|----------------|----------------|
|----7757--/-7---|----7757--/-7---|----7757--/-7---|5-555-55.555777-|
|3-0------0----0-|3-0------0----0-|3-0------0----0-|----------------|

Verse 1 (x2)

Chorus (outro pt.1): (0:51)
|----------------|----------------|----------------|-----------------|
|----------------|----------------|----------------|--------/99998888|
|----------------|----------------|----------------|-----------------|
|5555555588888888|3333333322221111|5555555588888888|33333333---------|

Fill

Verse 2: (x2)(1:17)
|----------------|----------------|----------------|----------------|
|----------------|----------------|----------------|----------------|
|----------------|----------------|----------------|5-555-55.555777-|
|3-0-00-0-0000-3-|3-0-00-0-0000-3-|3-0-00-0-0000-3-|----------------|

Chorus

Bridge: (x2)(1:55)
|----------------|----------------|----------------|----------------|
|----------------|----------------|----------------|----------------|
|----------------|----------------|----------------|----------------|
|7-*-*-*-*-*-*-*-|0-*-*-*-*-*-*-*-|7-*-*-*-*-*-*-*-|3-*-*-*-0-*-*-*-|

Outro pt.1 (x4)

Outro pt.2: (3:10)
|----------------|
|----------------|
|----------------|
|3-5-R---R---R---|


Текст, аккорды и табулатура для песни "President Dead", исполняет "Marilyn Manson".
Используемые в песне аккорды можно найти в разделе Как брать аккорды. Аккорды для шестиструнной гитары. Другие песни можно найти на нашем сайте, воспользовавшись алфавитным указателем вверху страницы.


 
Ошибка в тексте? Выделите ошибку и нажмите Ctrl+Enter