tabbed by lozz andon
para noir
marilyn manson
music 5,skold,manson

the song itself is very simple, for amp settings i would opt for rectified (sadly) high
gain with very high trebles and very low (low as in 0) mids and bass. The solo has been
tabbed in e but when recorded it was played blindfolded with out of tune, very out of tune guitars.


Chorus
e----------------------------------------------------------
B----------------------------------------------------------
G-------7/9--9-9-9-9--7-7--------7/9--9-9-9-9--10-10-------
D--2-2--7/9--9-9-9-9--7-7---2-2--7/9--9-9-9-9--10-10-------
A--2-2--5/7--7-7-7-7--5-5---2-2--5/7--7-7-7-7---8--8-------
E--0-0----------------------0-0----------------------------

(continued; end on:)
e----------------------------------------------------------
B----------------------------------------------------------
G-------7/9--9-9-9-9--7-7---10-----------------------------
D--2-2--7/9--9-9-9-9--7-7---10-----------------------------
A--2-2--5/7--7-7-7-7--5-5----8-----------------------------
E--0-0-----------------------------------------------------


Bridge (with delay/echo)
e------------19----------------19--------------------------
B--21---20-----------21---20-------------------------------
G----------------------------------------------------------
D----------------------------------------------------------
A----------------------------------------------------------
E----------------------------------------------------------


Solo
e----------------------4-----------------------------------
B----------------------------------------------------------
G------------------------------------------------------x---
D-------------------------------------------------5----x---
A----------------------------------------------------
E--0----/-5^---x------------/-5-----x--------------------

(continued)
e--7-/12------------------------1210----------10/-16-16---
B--------------------------------------12------------------
G----------------------------------------------------------
D----------------------------------------------------------
A-----------14.-14.-14.-14.-14-----------------------------
E----------------------------------------------------------

(continued)
e--16-16-16--------------/-20^-20^-20^-20^-20^-20^--20----
B----------------------------------------------------------
G----------------------------------------------------------
D---------------------x------------------------------------
A----------------8----x------------------------------------
E----------------------------------------------------------

(continued)
e-----------------------------12^--12.-12.-12--------------
B--0.------------------------------------------------------
G------9---9---9`---9--------------------------------------
D-----------------------x-/--------------------x-/---------
A-----------------------x-/--------------------x-/---------
E----------------------------------------------------------

(continued)
e----------------------------------------------------------
B--13^--13^-13^-13^-13^-13^--13p11p9-----------------------
G--------------------------------------x---9^p7--9^--9^p7--
D--------------------------------------x-------------------
A----------------------------------------------------------
E----------------------------------------------------------

(continued)
e--12/14`-------12/15`---14p12p10-----12^`-----------------
B----------------------------------------------------------
G----------------------------------------------------------
D----------10----------------------x--------x--------------
A----------------------------------x--------x--------------
E----------------------------------------------/-5--5--5---


Текст, аккорды и табулатура для песни "Para-noir", исполняет "Marilyn Manson".
Используемые в песне аккорды можно найти в разделе Как брать аккорды. Аккорды для шестиструнной гитары. Другие песни можно найти на нашем сайте, воспользовавшись алфавитным указателем вверху страницы.


 
Ошибка в тексте? Выделите ошибку и нажмите Ctrl+Enter