Organ Grinder                                                                              
 Marilyn Manson
 tabbed by:  Fred  [email protected]

G-|--------------------------------------|------------------------------------|
D-|------------------------------------*-|---------------------------5--------|
A-|-7-5-7--7-5-7--7-5-7----------------*-|-7-7-5-7-5-7-5-7-5-7-7-5-7--7-7-7-5-|
E-|---------------------3-3-3-3--6-6-6---|------------------------------------|
                                            played during little interludes                                    
                                            not perfectly tabbed out
                                                                   
G-|-------------------------------------|
D-|-------------------------------------|
A-|-5-5-5-5---------5-5-5-5-------------|
E-|---------5-5-5-5---------5-4-5-4-----|
                                                                               
                                                                               


Текст, аккорды и табулатура для песни "Organ Grinder", исполняет "Marilyn Manson".
Используемые в песне аккорды можно найти в разделе Как брать аккорды. Аккорды для шестиструнной гитары. Другие песни можно найти на нашем сайте, воспользовавшись алфавитным указателем вверху страницы.


 
Ошибка в тексте? Выделите ошибку и нажмите Ctrl+Enter