Wormboy by Marilyn Manson
Guitarist: Daisy Berkowitz
Album: Antichrist Superstar
Dif.: 8
Tabbed by Twiggy5

NOTE: This one is really difficult because it’s a lot of random ***. The verse is a lot of random 
stuff and guitar comes in and out so i’ll match up the lyrics when they come in with gutiar

Intro
G|-4-4-----7-7--|--------|-4-4-----7-7---|-----------|
D|-4-4-3-3-7-7--|-5555---|-4-4-3-3-7-7---|-5--5----5-|
A|-2-2-3-3-5-5--|--------|-2-2-3-3-5-5---|-----------|
E|-----1-1------|--------|-----1-1-------|-----------|
                         nh-----|                      nh--------|

Intro P2 (Gtr. 1)
D|----------8^----------------|
A|-------7------------7--10---|
E|-7h8---------7h8----------0-|
                  ^ bend 1/ 2step

Intro P2 (cont.)
D|----------8^---------------|
A|-------7--------------7----|
E|-7h8---------7h8---------0-|
                 ^ bend 1/ 2step

Intro P2/Bridge P2 (Gtr. 2)
E|-7^p6---------------7^p6---------------|


Текст, аккорды и табулатура для песни "I Want To Disappear", исполняет "Marilyn Manson".
Используемые в песне аккорды можно найти в разделе Как брать аккорды. Аккорды для шестиструнной гитары. Другие песни можно найти на нашем сайте, воспользовавшись алфавитным указателем вверху страницы.


 
Ошибка в тексте? Выделите ошибку и нажмите Ctrl+Enter