Intro
e--------------------------------------------------------
B--------------------------------------------------------
G--------------------------------------------------------
D-4-4------4-4----5-5------------------------------------
A-4-4------4-4----5-5------------------------------------
E-2-2------2-2----3-3------------------------------------
("I don´t like the drugs...")

Verse (Guitar 1, with effect)
e--------------------------------------------------------
B--------------------------------------------------------
G--------------------------------------------------------
D-2h4p2-2-4--2h4p2-2--2h4p2-2-4--4-6-7--2h4p2-2-4--------
A--------------------------------------------------------
E--------------------------------------------------------

(continued)
e-------------------/14-14-14-14-------------------------
B--------------------------------------------------------
G--------------------------------------------------------
D-2h4p2-2--2h4p2-4---------------------------------------
A--------------------------------------------------------
E--------------------------------------------------------

Pre-Chorus A (Guitar 1)                  end on
e--------------------------------------------
B--------------------------------------------
G-6--6--9-9-9--6-6-9--6-6-9---6--6-----------
D-6--6--9-9-9--6-6-9--6-6-9---6--6--2-3-|--4-------------
A-4--4--7-7-7--4-4-7--4-4-7---4--4--2-3-|--4-------------
E-----------------------------------0-1-|--2-------------
("You and I are...")

Pre-Chorus B (Guitar 2)
e--------------------------------------------------------
B-9^---12^---9^----------9^---12^---9^-------------------
G----------------11--9-----------------------------------
D---------------------------------------2--3-------------
A---------------------------------------2--3-------------
E---------------------------------------0--1-------------

Chorus
e--------------------------------------------------------
B--------------------------------------------------------
G-----------------2----2--4-------------------2----4--2--
D-4-4--4-4--4-4-4-2-2--2--4---4-4--4-4--4-4-4-2-2--4--2--
A-4-4--4-4--4-4-4-0-2--0--2---4-4--4-4--4-4-4-0-2--2--0--
E-2-2--2-2--0h2-2---0---------2-2--2-2--0h2-2---0--------
("I don´t like the drugs...")

Fill         Bridge (Bass)
e-------14^-|
B----14-----|
G-11-----------------------------------------
D--------------------------------------------
A--------------------------------------------
E-----------|-8---6---6-6---6-6---6---5---5-5----5-5-----

Outro (Guitar 2)
e--------------------------------------------------------
B---------------------5-7^-----------------------5-7^----
G--------------------------------------------------------
D-4-4-/7^---4-4-/7^----------4-4-/7^---4-4-/7^-----------
A-4-4-/7^---4-4-/7^----------4-4-/7^---4-4-/7^-----------
E--------------------------------------------------------

(continued)
e---------------1312-----------------------------17^(x4)
B----------------------1312-----------------------------
G--------------------------------------------------------
D-4^---4^---4^----------------4^-x-x-4^-x-x-4^-x-x-------
A-4^---4^---4^----------------4^-x-x-4^-x-x-4^-x-x-------
E--------------------------------------------------------


Текст, аккорды и табулатура для песни "I Dont Like The Drugs (But The Drugs Like Me)", исполняет "Marilyn Manson".
Используемые в песне аккорды можно найти в разделе Как брать аккорды. Аккорды для шестиструнной гитары. Другие песни можно найти на нашем сайте, воспользовавшись алфавитным указателем вверху страницы.


 
Ошибка в тексте? Выделите ошибку и нажмите Ctrl+Enter