Filth - Marilyn Manson

By: Jon Craven ([email protected])
For questions, comments, feedback, an outline of the timing, write the above
address.

Note:
  -Played with a pick.

(4/4, changes noted)(126 bpm)
Standard tuning

|-R-| - rest for one measure
. - staccato note
R - quarter rest
r - eighth rest
* - note held for an eighth beat

Intro pt.1:
|---|---|---|----------------|----------------|---|
|---|---|---|----------------|----------------|---|
|---|---|---|------------.---|------------.---|---|
|-R-|-R-|-R-|R---R---R---0---|R---R---R---1---|-R-|

Intro pt.2 (verse/pre-chorus): (x4)(0:11)
|----------------|----------------|
|----------------|----------------|
|.---.-----2-2-2-|.---.-----3-3-3-|
|0---0---r-------|1---1---r-------|

Verse (x8)

Chorus: (0:57)
|----------------|----------------|----------------|----------------|
|----------------|----------------|----------------|----------------|
|6-6-6-6-6-6-6-6-|3-3-3-3-3-3-3-3-|----------------|----------------|
|----------------|----------------|2-2-2-2-2-2-2-2-|2-2-2-2-2-2-2-2-|

Verse (x8)
Pre-chorus (x4)
Chorus (x2)

Bridge: (2:05)
|----------------|----------------|---|----------------|
|----------------|----------------|---|----------------|
|.---.-----2-2-2-|.---.-----3-3-3-|---|1---1---1---1---|
|0---0---r-------|1---1---r-------|-R-|----------------|

Interlude: (2:13)
|----------------|----------------|--|----------------------------|
|----------------|----------------|7:|----------------------------|
|----------1-1-1-|2---1---r-0-0-0-|4:|--------1---0-*-*-*-3-3-3---|
|0---3---r-------|----------------|--|0---3-----------------------|

|----------------|----------------|--|----------------------------|
|----------------|----------------|7:|----------------------------|
|----------1-1-1-|2---1---r-0-0-0-|4:|--------1---0-*-*-*-3-3-3---|
|0---3---r-------|----------------|--|0---3-----------------------|

|----------------|----------------|----------------|
|----------------|----------------|----------------|
|----------1-1-1-|2---1---r-0-0-0-|--------1---0---|
|0---3---r-------|----------------|0---3-----------|

|--|----------------------------|----------------|----------------|
|7:|----------------------------|----------------|----------------|
|4:|--------1---0-*-*-*-3-3-3---|----------1-1-1-|2---1---r-0-0-0-|
|--|0---3-----------------------|0---3---r-------|----------------|

|--|----------------------------|
|7:|----------------------------|
|4:|--------1---0-*-*-*-3-3-3---|
|--|0---3-----------------------|

Outro: (2:41)
|----------------|----------------|----------------|----------------|
|----------------|.---------------|----------------|.---------------|
|----------------|2---R---R---R---|----------------|3---R---R---R---|
|0-*-*-*-*-*-*-*-|----------------|1-*-*-*-*-*-*-*-|----------------|


Текст, аккорды и табулатура для песни "Filth", исполняет "Marilyn Manson".
Используемые в песне аккорды можно найти в разделе Как брать аккорды. Аккорды для шестиструнной гитары. Другие песни можно найти на нашем сайте, воспользовавшись алфавитным указателем вверху страницы.


 
Ошибка в тексте? Выделите ошибку и нажмите Ctrl+Enter