Dried Up, Tied, and Dead to the World - Marilyn Manson

By: Jon Craven (i_ap[email protected])
For questions, comments, feedback, an outline of the timing, write the above
address.

Notes:
  -Played with a pick.
  -A legato slide is where the notes are played smoothly; in this case the D
(A:-5) is played in the middle of the slide to the E (A:-7).
  -Measures in the chorus have been expanded by one space; the notes are still
sixteenth notes.

(4/4)(88 bpm)
Standard tuning

* - note held for an eighth beat
/ - slide up
*L* - legato slide
. - sixteenth rest
R - quarter rest

Intro: (played softly)
|----------------|----------------|----------------|----------------|
|----------------|----------------|----------------|----------------|
|7-*-*-*-*-*-*-*-|*-*-*-*-*-7-7-7-|----7-------5-7-|----7-------5-7-|
|----------------|----------------|00-0--00-00-----|00-0--00-00-----|

|----------------|----------------|
|----------------|----------------|
|----7-------5-7-|----7-------5-7-|
|00-0--00-00-----|00-0--00-00-----|

Verse: (x8)(0:16)
|----------------|
|-----------*L*--|
|---/7------/5777|
|00-0--00-000----|

Rest for two measures
Verse (x8)

Chorus: (x2)(1:06)
|----------------|----------------------------------------|----------------|
|-----------*L*--|----------------------------------------|----------------|
|---/7------/5777|5-5-5-5-5-5-5-5/10-10-10-10-10-10-10-10-|----------------|
|00-0--00-000----|----------------------------------------|7777777777778888|

|----------------------------------------|
|----------------------------------------|
|12-12-12-12-12-12-12-12-0-0-0-0---------|
|--------------------------------0-0-0-0-|

Rest for four measures
Verse (x8)
Chorus (x2)
Rest for eight measures
Chorus (x4)

Outro: (x16)(3:27)
|----------------|
|----------------|
|----------------|
|00-.00-00-0-R---|

Rest till end


Текст, аккорды и табулатура для песни "Dried Up Tied And Dead To The World", исполняет "Marilyn Manson".
Используемые в песне аккорды можно найти в разделе Как брать аккорды. Аккорды для шестиструнной гитары. Другие песни можно найти на нашем сайте, воспользовавшись алфавитным указателем вверху страницы.


 
Ошибка в тексте? Выделите ошибку и нажмите Ctrl+Enter