Cruci-Fiction in Space - Marilyn Manson

By: Jon Craven ([email protected])
For questions, comments, feedback, an outline of the timing, write the above
address.

Note:
  -Played with a pick.

(4/4)(100 bpm)
Tuned one and a half steps down (low to high: Db Gb B E)

* - note held for an eighth beat
/ - slide up
 - slide down
+ - note held for a sixteenth beat

Intro (verse/outro): (x16)
|--------------------|
|--------------------|
|--------------------|
|12---12---12---12---|

Verse (x16)

Chorus: (x4)(1:16)
|----------------------|------------------|
|----------------------|------------------|
|----------------------|------------------|
|12-12-12-10-12-10-3-*-|*-*-*-*-12---10---|

Bridge 1: (1:36)
|-------------------|------------------|-------------------|------------------|
|-------------------|------------------|-------------------|------------------|
|-------------------|------------------|-------------------|------------------|
|12-*-*-12/18-*-*-*-|*-*-*-*-17---16---|12-*-*-12/18-*-*-*-|*-*-*-*-17---16-0|

Verse (x8)
Chorus (x4)

Bridge 2: (x4)(2:24)
|-----------------------|----------------|
|-----------------------|----------------|
|------------------15-*-|*-*-*-*-*-*-*-*-|
|12-12-12-12-12-12------|----------------|

Interlude: (x8)(2:43)
|-------------------|---------------------|
|-------------------|---------------------|
|13-*-*-12-*-*-10-*-|*--------------------|
|-------------------|--12-*-+010-12-10-12-|

Outro (x24)
Rest till end


Текст, аккорды и табулатура для песни "Cruci-fiction In Space", исполняет "Marilyn Manson".
Используемые в песне аккорды можно найти в разделе Как брать аккорды. Аккорды для шестиструнной гитары. Другие песни можно найти на нашем сайте, воспользовавшись алфавитным указателем вверху страницы.


 
Ошибка в тексте? Выделите ошибку и нажмите Ctrl+Enter