MARILYN MANSON - CAKE AND SODOMY
Tabbed by: Mattias Jaselius

Standard Tuning

INTRO:

e|------------------------------------|
b|------------------------------------|
g|------------------------------------|
d|--9-9---9-9---9-9---9-93--------|
a|--9-9---9-9---9-9---9-93--------|
e|--7-7---7-7---7-7---7-71/7------|

RIFF 1: 2x

e|-------------------------------------------------|
b|-------------------------------------------------|
g|----------------------------------|
d|--9-9-------------------------------------------|
a|--9-9-------------------------------------------|
e|--7-7-------------------------------------------|
  (virgins sold in quantity...)

RIFF 2: 2x

e|----------------------------------------------------|
b|----------------------------------------------------|
g|----------------------------------------------------|
d|--9-9--3-/-9-------------------------------------|
a|--9-9--3-/-9-----------7777--------4444----------|
e|--7-7--1-/-7-77777777--5555-5p7-5--2222-2p5-2----|
                       p.m.... . .    .... . .

RIFF 3:

e|----------------------------------------------------|
b|----------------------------------------------------|
g|----------------------------------------------------|
d|--9-9--3-/-9----------------------------77---------|
a|--9-9--3-/-9-99999999--777774/74--4---55---------|
e|--7-7--1-/-7-77777777--555552/52--2--------------|
  (Porno nation...)

RIFF 4: guitar 2 plays riff 3.

e|----------------------------------------------------------------------|
b|--12-12-12-12-12-12-12-1210-10-10-10-107-7-7-7----------------------|
g|--11-11-11-11-11-11-11-119--9--9--9--9-6-6-6-6----------------------|
d|--9--9--9--9--9--9--9--9-7--7--7--7--7-4-4-4-4------7777-----7fb----|
a|------------------------------------------------------5555-----7fb----|
e|---------------------------------------------------------------5fb----|

CHORUS: 2x

e|---------------------14fb------------------------------------|
b|---------------------14fb------------------------------------|
g|-----------------------------------------------777-----------|
d|--9-9------7-7-----------------244424444/7-777-777-----------|
a|--9-9-XXXX-7-7-----------------244424444/7-777-555-----------|
e|--7-7-XXXX-5-5-----------------022202222/5-555---------------|
  (White trash get down on your knees...)

(Continued)

e|----------------------------------------------------|-------END-------|
b|-------------------1210/12---------------7777-----|-----------------|
g|-------------------119-/11---------------7777-----|-----------------|
d|--9-9------7-7-----9-7-/9----244424444---5555-777-|--9-------------|
a|--9-9-XXXX-7-7-----------------244424444--------777-|--9-------------|
e|--7-7-XXXX-5-5-----------------022202222--------555-|--7-------------|
        pick slide  

RIFF 5: 2x

e|---------------------------------------------|
b|---------------------------------------------|
g|-------------------------11-14-11-14--------|
d|--9-9--------------------------.--.--.------------|
a|--9-9---------------------------------------------|
e|--7-7---------------------------------------------|
  (VCRґs and vaseline...)

RIFF 6:

e|----------14-(14fb)-(14r)--------------------------------------|
b|----------15-(15fb)-(15r)--------------------------------------|
g|---------------------------------------------------------------------|
d|--9-9---------------------------------------------------------------|
a|--9-9------------------------7777-----------------4444--------------|
e|--7-7------------------------5555-----------------2222--------------|
                             p.m....                 ....

RIFF 6 END:

e|---------------------------------------|
b|---------------------------------------|
g|---------------------------------------|
d|----------------77--7b--7fb(9)---------|
a|--77774/74-4--55--7b--7fb(9)---------|
e|--55552/52-2------5b--5fb(7)---------|

SOLO:

e|--------------------------------------------------------|
b|--------------------------------------------------------|
g|--------------------------------------------------------|
d|--444444444/7774/744444444/77777777/999---------------|
a|--444444444/7774/744444444/77777777/999---------------|
e|--222222222/5552/522222222/55555555/777---------------|

(Continued)

e|------------------------------------------------------------|
b|--77777777/101010101010101077777777/1010101010101010------|
g|--66666666/9-9-9-9-9-9-9-9-66666666/9-9-9-9-9-9-9-9-------|
d|--44444444/7-7-7-7-7-7-7-7-44444444/7-7-7-7-7-7-7-7-------|
a|------------------------------------------------------------|
e|------------------------------------------------------------|

(Continued)

e|-----88888-------1212121212----88888/------1212121212----|
b|--77777777/101010101010101077777777/1010101010101010----|
g|--66666666/9-9-9-9-9-9-9-9-66666666/9-9-9-9-9-9-9-9-----|
d|--44444445/7-7-7-7-7-7-7-7-44444444/7-7-7-7-7-7-7-7-----|
a|----------------------------------------------------------|
e|----------------------------------------------------------|

Song structure:

INTRO 
RIFF 1 
RIFF 2 
RIFF 3
RIFF 4 & RIFF 3
CHORUS 
RIFF 5 
RIFF 6
CHORUS
SOLO
CHORUS

I hope this helps you!!


Текст, аккорды и табулатура для песни "Cake And Sodomy", исполняет "Marilyn Manson".
Используемые в песне аккорды можно найти в разделе Как брать аккорды. Аккорды для шестиструнной гитары. Другие песни можно найти на нашем сайте, воспользовавшись алфавитным указателем вверху страницы.


 
Ошибка в тексте? Выделите ошибку и нажмите Ctrl+Enter