song:    lavender
artist:  Marilion
Album:   Misplaced childhood
Autor:   Ramondo Kok

there are so many variations that i dont know if they are all correct and i dont
bother myself to get them all

G||------|-----|-----|------||-.---|-.---|-.---|-.-------|-.-------.--|
D||*14---|-12--|-11--|-----*||-14--|-12--|-11--|---------|-14-.---14--|
A||*-----|-----|-----|12---*||-----|-----|-----|-12-14---|----14------|
E||------|-----|-----|------||-----|-----|-----|-------12|------------|

G|-.-----.--|-.-------.--|----||--------------------------||
D|-12-.--12-|-11--.---11-|----||*------------------------*||
A|----12----|-----11-----|12--||*12-12-12-12-12-12-12-12-*||
E|----------|------------|----||--------------------------||

G|----------|--------|-------------|----------------------|-----------|
D|----------|--------|---------6-7-|----------------------|---------9-|
A|-7--77-7--|-5-55-5-|-4-44--4-----|-12----12-12----12-12-|-7--77-7---|
E|----------|--------|-------------|----12-------12-------|-----------|

G|---------|----------|---------------------|--------|--------|------------|
D|-------7-|-------67-|---------------------|--------|--------|---------6-7|
A|-5~-555--|-4-44-4---|-12---12-12----12-12-|-7-77-7-|-5-55-5-|-4-44-4-4---|
E|---------|----------|----12------12-------|--------|--------|------------|

G|----------|---------|------------|-----------|---------|-----------|
D|--------9-|---------|---------64-|-7--7-9-7--|---------|-----------|
A|-7-77-7---|-5--55-5-|-4-44-4-4---|-----------|-7-77-7--|-5-55-12s-|
E|----------|---------|------------|-----------|---------|-----------|

G|-----------|----------|-------------|---------------------|--------|----------|
D|-----------|----------|----------67-|---------------------|--------|----------|
A|-7-77-7--7-|-5--5-5-5-|-4--4-4-4----|-12---12-12---12-12--|-7-77-7-|-5-55-12s|
E|-------0---|----------|-------------|----12------12-------|--------|----------|

                        solo:
G|-----6---|-------9---|-------9-9-----|-----------|------6--6-|----------------|
D|-------6-|--7-7----9-|---7-9-----9-7-|-----7---7-|-----6--6--|----------------|
A|-4-4-----|-----------|-7-------------|-5-5----5--|-4-4-------|12--12-12--12-12|
E|---------|-----------|---------------|-----------|-----------|--12-----12-----|

G||------------|-----------|-------------|-------------------||----------------||
D||*----9----9-|---------7-|----------67-|------------------*||----------------||
A||*7-7----7---|-5--55-5---|-4-44-44-4---|-12--12-12--12-12-*||-7--------------||
E||------------|-----------|-------------|---12-----12-------||----------------||


Текст, аккорды и табулатура для песни "Lavender", исполняет "Marillion".
Используемые в песне аккорды можно найти в разделе Как брать аккорды. Аккорды для шестиструнной гитары. Другие песни можно найти на нашем сайте, воспользовавшись алфавитным указателем вверху страницы.


Слушать онлайн Lavender


MarillionLavender на Яндекс.Музыке


 
Ошибка в тексте? Выделите ошибку и нажмите Ctrl+Enter