*************************************************
*						*
*     Bass-tab:					*
*	Marillion: Kayleigh                     *
*	From the Album: Misplaced Childhood 	*
*	Copyright 1985				*
*	Music by: Kelly,Mosley,Rothery,Trewavas	*
*						*
*************************************************

Transcribed by Mark Timmermans 

Tuning: tune E(4th) one step down to D,
		 A(3th) one step down to G,
		 D(2nd) one step down to C and
		 G(1st) one step down to F

intro:
G-----------|-----------|----
D-----------|-----------|----
A-----------|-----------|----
E-----------|-/9----(9)-|----


Vers 1:
G--------------------|--------------------------|-----------------------|---------------------
D--------------------|-------------------7-6----|-----------------------|---------------------
A--------------------|-----------------------7--|--------9-------------|---------------------
E--7-----4----5---7--|-9----7----4---5-5--------|-9----7-----4---5---7--|-9---7---4--5-5--5-7-


Chorus (first time)
G---------------------|---------------------|------------------------------------------------
D---------9-----------|-------------7-6-----|------------------------------------------------
A---7--7-------7--7---|--5--4-----7-----7---|------------------------------------------------
E-----------7-------7-|-------7-5-----------|--0-4--5--6--7----------------------------------



G---------------------|---------------------|------------------------------------------------
D---------9-----------|-------------7-6-----|------------------------------------------------
A---7--7-------7--7---|--5--4-----7-----7---|------------------------------------------------
E-----------7-------7-|-------7-5-----------|-4----5----6-----7------------------------------




G---------------------|---------------------|---------9--------------------------------------
D---------14---------|-------------7-6-----|--9-h-11-----11--9-------------------------------
A---7--7/-----7---7---|--5--4-----7-----7---|------------------------------------------------
E-------------------7-|-------7-5-----------|------------------------------------------------


G--------------13-h-14-13---------|-------------------------
D-----------14------------14------|---------------7---------
A---7--7-7/------------------14--|--5--4------7------------
E---------------------------------|-------7-5-------0-------



Solo  : (The first part of the solo is played like the first verse, but with a diferent feel)
G-----------------------|------------------------------------------
D-----------------------|------------------------------------------
A-----------9----------|---(etc.)---------------------------------
E-----9---7----4---5--7-|------------------------------------------


Solo (second part):						 (chorus)
G------------------------|---------------------------|-----------------|-------------------
D-----------9---6-------|---------9--6---------7-6-|------9---------|-------------------
A---------9--------6-----|--------9------6-----------|-7--7----7--7----|--5-4--------------
E---9---7------------6-5-|--9---7----------6--5------|--------------7--|------7-5--7-9--0--



'intro' after the solo:
G---------|-----------------|---------------|------------------------------------------------
D---------|-------13--------|---------------|------------------------------------------------
A---------|-10-12----12-----|---------------|------------------------------------------------
E-(0)/-11-|-------------11--|------(11)-----|------------------------------------------------



Verse 2:
G-----------------|---------------------|---------------------|-------------------------------
D-----------------|---------------------|---------------9-8---|-------------------------------
A-----------------|--------11----------|-------------------9-|-------------------------------
E---11--9--6--7--9|-11--9------6--7--9--|-11--9--6--7-7-------|--11--9--6--7-7--7-9-----------



Chorus (second time)
G---------------------|---------------------|------------------------------------------------
D---------9-----------|-------------7-6-----|------------------------------------------------
A---7--7-------7--7---|--5--4-----7-----7---|------------------------------------------------
E-----------7-------7-|-------7-5-----------|--0-4--5--6--7----------------------------------



G---------------------|---------------------|-----------------------------------------
D---------9-----------|-------------7-6-----|----6--7--8--9---------------------------
A---7--7-------7--7---|--5--4-----7-----7---|--7--------------------------------------
E-----------7-------7-|-------7-5-----------|-----------------------------------------




G---------------------|---------------------|------------------------------------------------
D---------14---------|-------------7-6-----|------------------------------------------------
A---7--7/-----7---7---|--5--4-----7-----7---|------------------------------------------------
E-------------------7-|-------7-5-----------|-4---5---6----7---------------------------------


									  (Lavender-->)	
G-----------/13-h-14-13-----------|---------------------|----------------19-------------------
D----------/------------14--------|---------------7-----|----------17-19-----(16)-------------
A---7--7-7/------------------14--|--5--4------7--------|--14-/-19----------------------------
E---------------------------------|-------7-5-------0---|-------------------------------------

http://www.zynith.myweb.nl/			      [email protected]
[email protected]=======
==                       TABLATURE EXPLANATION                        ==
========================================================================

----------                ----------                ----t---
----5h8--- Hammeron       ----(8)--- Ghost          ----6--- Tap
----------                ---------- Note           --------
----5p8--- Pulloff        ----------                --------

----------                ----------                -----p--
----5/8--- Slide Up       -----x---- Dead           -----7-- Pop
----------                ---------- Note           --s-----
----58--- Slide Down     ----------                --5----- Slap

----------                ||------|| Repeat         --------
----5~~~-- Vibrato        ||*----*||                ---5^--- Bend
----------                ||*----*||                --------
----------                ||------||                --------
_______________________________________________________________________________________________


Текст, аккорды и табулатура для песни "Kayleigh", исполняет "Marillion".
Используемые в песне аккорды можно найти в разделе Как брать аккорды. Аккорды для шестиструнной гитары. Другие песни можно найти на нашем сайте, воспользовавшись алфавитным указателем вверху страницы.


Слушать онлайн Kayleigh


MarillionKayleigh на Яндекс.Музыке


 
Ошибка в тексте? Выделите ошибку и нажмите Ctrl+Enter