6|-0-00-00-3-33-33-3-33-33-2-22-22---------| 4раза   (вступление)
5|-2-22-22-3-33-33-5-55-55-2-22-22---------|
                                                                                                                             
4---------1-11-11-------------------|                            
53-33-33----------5-55-55--------- |  весь куплет  
6|-2-22-22-------------------------------------- |           
Am           F            C            E
Мои соседи некрофилы мои друзья наркоманы.
Я хожу в школу для дебилов жизнь моя полна дерьма.
Меня мучает совесть за мои грехи я не думаю, как мне дальше жить.
Я слушаю Летова ночью и днем, и все плохо говорят о нем.
Я не слушаю их ведь мне наплевать я создал свой мир мой мир для меня.
   Am   F      C          E 
4|---1-1-1----------------|                
5|--3------5---------------|  2X       
6|-2---------2-3-5-5-3-2-|               
Я живу для себя я создал свой мир мой мир это стрельбище, тир
Я иду со школы на меня наезжают быки, наркоманы на деньги кидают
Я не знаю что мне делать я не знаю как мне быть
Ведь денег-то у меня нету да откуда им быть
И на такой печальной ноте ухожу из жизни я
Я ведь знал, что будет так плохо свою жизнь я предугадал.

   Am   F      C          E 
4|---1-1-1----------------|                1|-12------------------12-13-15-15-13-12-|
5|--3------5---------------| 2X        2|----13-----------15------------------------| 2X
6|-2---------2-3-5-5-3-2-|               3|-------12-12-12---------------------------|


Текст, аккорды и табулатура для песни "Мои соседи", исполняет "Маргиналъ".
Используемые в песне аккорды можно найти в разделе Как брать аккорды. Аккорды для шестиструнной гитары. Другие песни можно найти на нашем сайте, воспользовавшись алфавитным указателем вверху страницы.


 
Ошибка в тексте? Выделите ошибку и нажмите Ctrl+Enter