Marduk-Baptism By Fire
from the album Panzer Division Marduk
transcribed by Karl Westin
Send Questions and Comments to [email protected]

Riff A1:
-----------
-----------
-----------
-----------
-3---4-2-4-
-1---2-0-2-
(play 4x)

Riff A2:
-----------
-----------
-----------
-----------
-8---9-6-9-
-6---7-4-7-
(play 2x)
(play Riff A1 4x)
(play Riff A2 2x)

Riff B:
t  t  t t  t  t  t t t t t  t  t  t t  t t  t t  t t t t
-/--/--/-/--/--/--/-/-/-/-/--/--/--/-/---/-/--/-/--/-/-/-/-
-/--/--/-/--/--/--/-/-/-/-/--/--/--/-/---/-/--/-/--/-/-/-/-
-9--8--6-8--9--8--6-8-9-8-6--9--8--6-8---8-9--9-8--6-8-9-8-
-/--/--/-/--/--/--/-/-/-/-/--/--/--/-/---/-/--/-/--/-/-/-/-
-/--/--/-/--/--/--/-/-/-/-/--/--/--/-/---/-/--/-/--/-/-/-/-
-/--/--/-/--/--/--/-/-/-/-/--/--/--/-/---/-/--/-/--/-/-/-/-

Riff C:
--------------------
--------------------
--------------------
-6-6-6-6-7-7--7-6-4-
-6-6-6-6-7-7--7-6-4-
-4-4-4-4-5-5--------
(play 4x)
(play Riff A1 4x)
(play Riff A2 2x)
(play Riff A1 4x)
(play Riff A2 2x)
(play Riff B 1x)
(play Riff C 8x)

Riff D:
----/------/---/-
----/------/---/-
----12-----12--9-
-6--/---6--/---/-
-6--/---6--/---/-
-4--/---4--/---/-
(play 2x)

Riff E:            3x
-------------------||---------
------------------o||---------
-8--------------8--||-9-8-6-9-
-8--------6-8-9----||---------
-6--6-8-9---------o||---------
-------------------||---------
The D#hord is played by guitar 2.)
(play 6x)
(play Riff D 2x)
(play Riff E 4x)
(play Riff B 1x)
(play Riff C 6x)
end song on:
---
---
---
-6-
-6-
-4-

Note:
t  =Tremolo picking
-/-
-/-
-/-
-/-
-9-
-/-

-12- = fret no 12
-1-2-= first fret no 1 then fret no 2


Текст, аккорды и табулатура для песни "Baptism By Fire", исполняет "Marduk".
Используемые в песне аккорды можно найти в разделе Как брать аккорды. Аккорды для шестиструнной гитары. Другие песни можно найти на нашем сайте, воспользовавшись алфавитным указателем вверху страницы.


 
Ошибка в тексте? Выделите ошибку и нажмите Ctrl+Enter