St. Joe on the School Bus
by Marcy Playground
Tabbed by Matt Marchain  ([email protected])

           Intro
                                              Main Riff
G|--------------------------------|--------------------------------|
D|--------------------------------|+------------------------------+|
A|--------------------------------|+------------------------------+|
E|-drum-2-2-2-2-/-5-5-5-5-0-0-0-0-|--0-0-1-2-2-2-2/5-5-5-5-0-0-0-0-|


           Bridge

G|-------------------------------------------------------------|
D|-------------------------------------------------------------|
A|-------------------------------------------------------------|
E|-0-0-1-2-2-2-2-2-2-/-5-5-5-5-5--0-0-0-0-0-0-0-0-0-0-0-------|


G|----------------------------------------|
D|----------------------------------------|
A|------0---------4---------2-----2---2---|
E|--2-2---2-/-5-5---5--0-0---0-0---0-----|


G|-------------------------------------------|
D|-------------------------------------------|
A|---0----4----2--2-----4-------7----2--2-2--|
E|-22-2/55-50-00-0--55-5-00-77-7-00-00-0---|


Cool!
Questions?


Текст, аккорды и табулатура для песни "St Joe On The School Bus", исполняет "Marcy Playground".
Используемые в песне аккорды можно найти в разделе Как брать аккорды. Аккорды для шестиструнной гитары. Другие песни можно найти на нашем сайте, воспользовавшись алфавитным указателем вверху страницы.


 
Ошибка в тексте? Выделите ошибку и нажмите Ctrl+Enter