i Havent seen a decent version of this song yet


e------------------------------------------------------------------------|
b------------------------------------------------------------------------|
g------------------------------------------------------------------------|
d------------------------------------------------------------------------|
a--4-4-4-4--7-7-7-7--2-2-2-2-----------4-4-4-4--7-7-7-7--2-2-2-2---------|
E--2-2-2-2--5-5-5-5--0-0-0-0--0-0-0-1--2-2-2-2--5-5-5-5--0-0-0-0-0-0-0-1-|


then the chorus goes something like this


g----------------------------------------------------|
d-------------------------------2---2---2------------|
a------2----2---2------0--0---0---0--0---------------|
E--0-0--0-0---0----2-2---2---------------------------|

its not exact but you can figure it out when you listen to the song.


Текст, аккорды и табулатура для песни "Saint Joe On The School Bus", исполняет "Marcy Playground".
Используемые в песне аккорды можно найти в разделе Как брать аккорды. Аккорды для шестиструнной гитары. Другие песни можно найти на нашем сайте, воспользовавшись алфавитным указателем вверху страницы.


 
Ошибка в тексте? Выделите ошибку и нажмите Ctrl+Enter