Needle And The Damage Done
Intro / middle 8
E|-----2-----0--------------|-----------0--------------|
B|-----------------3-----3--|-----3-----------3-----3--|
G|--------------------------|--------2-----------2-----|
D|--0-----0-----0-----0-----|--------------------------|
A|--------------------------|--3-----------3-----------|
E|--------------------------|--------------------------|

E|-----------0--------------|-----------0--------------|
B|-----3-----------3-----3--|-----3-----------3-----3--|
G|--------0-----------0-----|--------0-----------0-----|
D|--------------------------|--------------------------|
A|--2-----------2-----------|--1-----------1-----------|
E|--------------------------|--------------------------|

E|-----0-----0-----0-----0--|-----0-----0-----0-----0--|
B|-----1-----1-----1-----1--|-----1-----1-----1-----1--|
G|--------------0----0h2----|--3-----2------0----------|
D|-------0h2----------------|--------------------3-----|
A|--3-----------------------|--------------------------|
E|--------------------------|--------------------------|

E|-----0-----0-----0-----0--|-----0-----0-----0-----0--|
B|-----0-----0-----0-----0--|-----0-----0-----0-----0--|
G|--2-----------------------|--1-----------------------|
D|--------2-----------------|--------2-----------------|
A|--------------2-----------|--------------2-----0-----|
E|--------------------0-----|--------------------------|

Verse
E|-----2---------2-------2---------|-----------0--------------|
B|------------------------------3--|-----3-----------3-----3--|
G|---------2-----------------2-----|--------2-----------2-----|
D|--0---------------0--------------|--------------------------|
A|---------------------------------|--3-----------3-----------|
E|---------------------------------|--------------------------|
       I caught you knocking at my   cel---lar door

E|-------------0--------------|-----------0--------------|
B|-----3-------------3-----3--|-----3-----------3-----3--|
G|--------0-------------0-----|--------0-----------0-----|
D|----------------------------|--------------------------|
A|--2-------------2-----------|--1-----------1-----------|
E|----------------------------|--------------------------|
       I love you baby can I    have some more

E|-----0--0--0-----0--0--0--|-----1--1--1-----1--1--1--|
B|-----1--1--1-----1--1--1--|-----1--1--1-----1--1--1--|
G|-----0--0--0-----0--0--0--|-----2--2--2-----2--2--2--|
D|--------------2-----------|--3-----------3-----------|
A|--3-----------------------|--------------------------|
E|--------------------------|--------------------------|
                Oh             oh      the da---mage
E|-----0--0--0-----0--0--0--|-----0-----0-----0-----0--|
B|-----0--0--0-----0--0--0--|-----0-----0-----0-----0--|
G|-----2--2--2-----2--2--2--|--------------------------|
D|--------------------------|-------------2/4----2-----|
A|--------------------------|-------0h2----------------|
E|--0-----------0-----------|--0-----------------------|
    done.

     I hit the city and I lost my band,
     I watched the needle take another man,
     Gone, gone, the damage done.

     Middle 8

     I sing the song because I love the man,
     I know that some of you don't understand,
     Milk-blood to keep from running out.

     I've seen the needle and the damage done,
     A little part of it in everyone,
     But every junkie's like a setting sun.

     End
     E|-----2-----0--------------|-----------0--------------|
     B|-----------------3-----3--|-----3-----3-----3-----3--|
     G|--------------------------|-----2-----2-----2-----2--|
     D|--0-----0-----0-----0-----|--------------------------|
     A|--------------------------|--3-----3-----3-----3-----|
     E|--------------------------|--------------------------|

     E|-----------0--------------|-----0-----0--------------|
     B|-----3-----3-----3-----3--|-----3-----3--------------|
     G|-----0-----0-----0-----0--|-----0-----0--------------|
     D|--------------------------|--------------------------|
     A|--2-----2-----2-----2-----|--1-----1-----------------|
     E|--------------------------|--------------------------|


Текст, аккорды и табулатура для песни "Needle And The Damage Done", исполняет "Marcy Playground".
Используемые в песне аккорды можно найти в разделе Как брать аккорды. Аккорды для шестиструнной гитары. Другие песни можно найти на нашем сайте, воспользовавшись алфавитным указателем вверху страницы.


 
Ошибка в тексте? Выделите ошибку и нажмите Ctrl+Enter