Artist: Marcy Playground
Song: Bye Bye
Album: Shapeshifter

Intro ( Palm muted ):
E-----------------------------------------
B-----------------------------------------
G-777-9-999-777-9-999-777-9-999-777-9-999-
D-777-9-999-777-9-999-777-9-999-777-9-999-
A-555 7-777-555-7-777-555-7-777-555-7-777-
E-----------------------------------------

Verse:P.M------------------------------>
E---------------------------------------------------------
B---------------------------------------------------------
G-777-9-999-777-9-999-777-9-999-77777777------------------
D-777-9-999-777-9-999-777-9-999-77777777-77777777-55555555    
A-555 7-777-555-7-777-555-7-777-55555555-77777777-55555555
E----------------------------------------55555555-33333333

P.M.----------------------------------->
E-----------------------------------------------------------------
B-----------------------------------------------------------------
G-777-9-999-777-9-999-777-9-999-77777777--------------------------
D-777-9-999-777-9-999-777-9-999-77777777-77777777-5555555555555555    
A-555 7-777-555-7-777-555-7-777-55555555-77777777-5555555555555555
E----------------------------------------55555555-3333333333333333

Chorus:
E---------------------------------------------------------------------
B---------------------------------------------------------------------
G-----9-999-----7-777-----9-999-----7-777-----9-999-----7-777---------
D-777-9-999-555-7-777-777-9-999-555-7-777-777-9-999-555-7-777-55555555
A-777-7-777-555-5-555-777-7-777-555-5-555-777-7-777-555-5-555-55555555
E-555-------333-------555-------333-------555-------333-------33333333

Verse:P.M------------------------------>
E---------------------------------------------------------
B---------------------------------------------------------
G-777-9-999-777-9-999-777-9-999-77777777------------------
D-777-9-999-777-9-999-777-9-999-77777777-77777777-55555555    
A-555 7-777-555-7-777-555-7-777-55555555-77777777-55555555
E----------------------------------------55555555-33333333

P.M.----------------------------------->
E-----------------------------------------------------------------
B-----------------------------------------------------------------
G-777-9-999-777-9-999-777-9-999-77777777--------------------------
D-777-9-999-777-9-999-777-9-999-77777777-77777777-5555555555555555    
A-555 7-777-555-7-777-555-7-777-55555555-77777777-5555555555555555
E----------------------------------------55555555-3333333333333333


Chorus:
E---------------------------------------------------------------------
B---------------------------------------------------------------------
G-----9-999-----7-777-----9-999-----7-777-----9-999-----7-777---------
D-777-9-999-555-7-777-777-9-999-555-7-777-777-9-999-555-7-777-55555555
A-777-7-777-555-5-555-777-7-777-555-5-555-777-7-777-555-5-555-55555555
E-555-------333-------555-------333-------555-------333-------33333333

E---------------
B---------------
G-------77777777
D-55-77-77777777
A-55-77-55555555
E-33-55---------

Solo ( W/ Dist.):
E------------------------------------------------------
B------------------------------------------------------ 
G----7h9-11-9-9-7h9---7-9-7-----7h9-11-9-9-7h9---7-9-7-
D9-9----------------9-------9-9----------------9-------
A------------------------------------------------------
E------------------------------------------------------

E------------------------------------------------------------- 
B-------------------------------------------------------------
G---7-99-11/16-11---7-9-7---7-99-11-99-7---7------------------
D-9---------------9-------9--------------9----v9 ( Ring )----->
A------------------------------------------------------------- 
E-------------------------------------------------------------

Chorus ( Two more times for outro. on second time overlap with
guitar 2 playing the solo ):
E---------------------------------------------------------------------------
B---------------------------------------------------------------------------
G-----9-999-----7-777-----9-999-----7-777-----9-999-----7-777-------77777777
D-777-9-999-555-7-777-777-9-999-555-7-777-777-9-999-555-7-777-55-77-77777777
A-777-7-777-555-5-555-777-7-777-555-5-555-777-7-777-555-5-555-55-77-55555555
E-555-------333-------555-------333-------555-------333-------33-55---------

Ending ( Strum in a free time feel )
E--------------
B--------------
G--------------
D-77-77-77-77-7
A-77-77-77-77-7
E-55-55-55-55-5


Текст, аккорды и табулатура для песни "Bye Bye", исполняет "Marcy Playground".
Используемые в песне аккорды можно найти в разделе Как брать аккорды. Аккорды для шестиструнной гитары. Другие песни можно найти на нашем сайте, воспользовавшись алфавитным указателем вверху страницы.


 
Ошибка в тексте? Выделите ошибку и нажмите Ctrl+Enter