Вступление:

      Em                                                     Am        
E||---3---3--3--3--2--0--3--3--3--3--2--0--3--3--3--3--2--0--0--------|
H||---0------------------0-----------------0-----------------1--------|
G||---0------------------0-----------------0-----------------2--------|
D||---2------------------2-----------------2-----------------2--------|
A||---2------------------------------------------------------0--------|
E||---0---------------------------------------------------------------|

   Am                                                     H           
|--5---5--5--5--------5--5--5--5--------5--5--5--5-----5--2---------||
|--5------------8--7--5-----------8--7--5-----------8-----4---------||
|--5------------------5-----------------5-----------------4---------||
|--7------------------7-----------------7-----------------4---------||
|--7------------------------------------------------------2---------||
|--5----------------------------------------------------------------||

 Em                                                  Am
Сложно признаться себе в этом промахе, выдохнув сердце на лед.
 Am                                            H
Вырваны запонки, запахи сломаны, вывихи - мертвой петлей.
Мы убегаем во всех направлениях, режем на точки маршрут.
Это болезненное отступление - лезвием под кожуру...

       Em      Am    H	       
Где-то моя любовь в жарких Сахарах...
       Em      Am  H7
Где-то моя любовь цедит зеленый чай.
Не отвечай на боль, времени мало...
Не отвечай на боль. Шепчет. Не отвечай. 

Снова и снова меняются планы, и в воздухе тихом звенят.
И не Танжер, и уже не Гавана - отнимут тебя у меня!
Новое солнце, готовое рухнуть, висящее на волоске;
И животами сплетаются руки, и танец в горящем пике!

Припев

Смело сползаем в огромную, залитую до краев, красоту.
И по колено в песке увязая, теряем свою высоту.

Брызги сверкающей крови на пальцах! Экватор небесный на дне!
Я задыхаюсь и может быть, хватит уже сожалеть обо мне?

Припев

	
	
	        
Комментарий автора: Em играется как 022003

Текст, аккорды и табулатура для песни "Где-то моя любовь", исполняет "Мара".
Используемые в песне аккорды можно найти в разделе Как брать аккорды. Аккорды для шестиструнной гитары. Другие песни можно найти на нашем сайте, воспользовавшись алфавитным указателем вверху страницы.


Слушать онлайн Где-То Моя Любовь


МараГде-То Моя Любовь на Яндекс.Музыке


 
Ошибка в тексте? Выделите ошибку и нажмите Ctrl+Enter