------2-----0---0---7---0-------------
--0------------------------0--3--2----
---------2----------------------------
--------------------------------------
--------------------------------------
--------------------------------------

------2-----0---0---7---0-------------
--0------------------------0--3--2----
---------2----------------------------
--------------------------------------
--------------------------------------
--------------------------------------

------2-----0---0---7---0-------------
--0------------------------0--3--2----
---------2----------------------------
--------------------------------------
--------------------------------------
--------------------------------------

Repeat this all the song!
Made by Daniel Santos.
Amo-te Marta.
If you find any error please tell me
[email protected]


Текст, аккорды и табулатура для песни "Me Gustas Tu", исполняет "Manu Chao".
Используемые в песне аккорды можно найти в разделе Как брать аккорды. Аккорды для шестиструнной гитары. Другие песни можно найти на нашем сайте, воспользовавшись алфавитным указателем вверху страницы.


 
Ошибка в тексте? Выделите ошибку и нажмите Ctrl+Enter