Intro:
Part 0:(two times)
e------------|----|--------|-----|
b------------|----|--------|-----|
g-----------o|----|-repeat-|-----|
D|-5-5-5-5-5-5-5-5--5---o|----|-part 0-|-----|
A|-3-3-3-3-3-3-3-3----6--|-3>-|--------|-7/--|
E------------|----|--------|-5/--|

Part I:(four times)     Part II:(two times)
He broke the...         Bound on the shoreline         Left for the..
e------------------------------|
b------------------------------|
g------------------------------|
D|-2-2-2-2-2-2-2--2----|-9-9-9-9-9-12-11-9-7----------|-9-9-9-9-9--|
A|-0-0-0-0-0-0-0----3--|-7-7-7-7-7-10--9-7-5-12-9-9-9-|-7-7-7-7-7--|
E--------------------10-7-7-7--|

  ...tide
e-------|        |        |        |         |
b-------|        |        |        |         |
g-------| Repeat | Repeat | Repeat | Repeat  |
D|-12-11-9-7--------| Part I | Intro  | Part I | Part II |
A|-10--9-7-5--9-9-9-|        |        |        |         |
E-7-7-7-|        |        |        |         |

Narration:
   D5
...return to world...
   e5
...vindicate the souls of...
   A5
...called: Vengeance...
   D5
...might and black in color...
   e5
...grims and fire...
   A5
...clap like thunder !

Part III:(two times)         Part IV:(two times)
                             Burning, Death, Destruction..
e--------------------------------------|
b--------------------------------------|
g--------------o-----------------------|
D|-5-------2-2-2---5-4-2---o|-----9-9--9-8-7-5------9-9--9-8-7-|
A|-3-0-0-0-0-0-0---3-2-0-5--|-2-2-7-7--7-6-5-3--2-2-7-7--7-6-5-|
E------------3--|-0-0---------------0-0------------|
   -three times-/

Repeat Part III, and then:
Part V:
Hoping to get...
e------|------------|
b------|------------|
g------|-Repeat---|-Repeat--|-Repeat the----|
D|-5-5-5-5-5-5-5-5-|-Part III-|-Part IV-|-Parts III, V,-|
A|-3-3-3-3-3-3-3-3-|-one time-|---------|-III and IV----|
E------|------------|

Solo 1
|--------8----------------------------------8--------------------------------|
|-11(13)---11-8----11-8--------------11(13)---11-8----11-8----8~-------------|
----10------10-10-8--------------------10------10----------------|
--------------------10-------------------------------------------|
-----------------------------------------------------------------|
-----------------------------------------------------------------|

|--------8------------------11-8----8----------------------------------------|
|-11(13)---11-8----11-8----------11---11-8-11-8----8-------------------------|
----10------10----------------------10---10-8-10-8----8----------|
---------------------------------------------------10---10-8-----|
-----------------------------------------------------------------|
-----------------------------------------------------------------|

----|-------5-8-5---8-5----10(12)-8-10-8----10(12)-8-10-8--------|
----|-8(10)-------8-----8----------------10---------------10-----|
|-10(12)-10(12)--------------------------------------------------|
-----------------------------------------------------|
-----------------------------------------------------|
-----------------------------------------------------|

|-15(17)-12-15-12--10(12)-10(12)-8-10-8----10(12)-8-10-8----15(17)~----------|
----------------------------10---------------10------------------|
-----------------------------------------------------------------|
-----------------------------------------------------------------|
-----------------------------------------------------------------|
-----------------------------------------------------------------|

Solo 2
---10-8----10-8----11-8----11-8------15-12----15-12----15-12-----|
--------10------10------10------10---------15-------15-------15--|
|-2--------------------------------------------------------------------------|
|-2--------------------------------------------------------------------------|
|-0/////------------------------------------------------------------------|
-----------------------------------------------------------------|
                                              
|-15-12----20-17----20-17----20-17-------------------------------------------|
|-------15-------20-------20-------20--20(22)-17-20-17----17-----------------|
-------------------------------------------19----19-17-19-17-16--|
-----------------------------------------------------------------|
-----------------------------------------------------------------|
-----------------------------------------------------------------|

-----------------------------------------------------------------|
------------------------------------------------------------12---|
|-17-16----16-----------------------------------------------------12-14------|
|-------17----17-17-16-14-16-14-12-14-12-10-10h12p10h12p10--12-14------------|
-----------------------------------------------------------------|
-----------------------------------------------------------------|

-----------------------------------------------------|
|-15(17)----------------------13-------13-------|-18(20)-15-18-15----18-15---|
|--------12h14p12h14p12h14p12----14-12----14-12-------17-------17|
-----------------------------------------------------|
-----------------------------------------------------|
-----------------------------------------------------|

---2020202020202020202020-191919191-171717-2020202-191919--171717|
|-18-15----------------------------------------------------------------------|
|-------17-15----------------------------------------------------------------|
-----------------------------------------------------------------|
-----------------------------------------------------------------|
-----------------------------------------------------------------|

|-20202020202-19191919-17171717--------|---------17--------------------------|
--------------------20(22)-|--20(22)----20-17----20-17----17-----|
----------------------------------19-------19----19--|
-----------------------------------------------------|
-----------------------------------------------------|
-----------------------------------------------------|

-----------------------------------------------------------------|
-----------------------------------------------------------------|
|-17-19-17----17----------------------------------17-19(21)------------------|
|----------19----19-17-19-17----17----------17-19----------------------------|
-----------------19----19-17-19----------------------------------|
-----------------------------------------------------------------|

|-------19-19--19-18-17-15-------12-15-12----15-12----15-12------------------|
|-17-17-----------------------------------15-------15-------15---------------|
-----------------0--------------------------------12~-----------|
-----------------------------------------------------------------|
-----------------------------------------------------------------|
-----------------------------------------------------------------|

-----10p7h10p7h10-10(12)------------12-----12--------------------|
|-7-8-7---7-8-10-------------------------15(17)-15(17)-15(17)----------------|
|-------9--------------------------------------------------------------------|
-----------------------------------------------------------------|
-----------------------------------------------------------------|
-----------------------------------------------------------------|

|-12-----11-----10-----8---------12-----11-----10-----8-------12-----11------|
|-15(17)-14(16)-13(15)-11(13)----15(17)-14(16)-13(15)-11(13)--15(17)-14(16)--|
-----------------------------------------------------------------|
-----------------------------------------------------------------|
-----------------------------------------------------------------|
-----------------------------------------------------------------|

|-10-------------------------------------------------------------------------|
|-13(15)---------------------------------------------------------------------|
-----------------------------------------------------------------|
-----------------------------------------------------------------|
-----------------------------------------------------------------|
-----------------------------------------------------------------|


Текст, аккорды и табулатура для песни "Dark Avenger", исполняет "Manowar".
Используемые в песне аккорды можно найти в разделе Как брать аккорды. Аккорды для шестиструнной гитары. Другие песни можно найти на нашем сайте, воспользовавшись алфавитным указателем вверху страницы.


Слушать онлайн Dark Avenger


ManowarDark Avenger на Яндекс.Музыке


 
Ошибка в тексте? Выделите ошибку и нажмите Ctrl+Enter