by Manowar
                              Taken from the album
                                  Battle Hymns
                                 Transcribed by
                        Mikko issakainen, [email protected]
  1   2   3   4     1    2    3   4     1   2   3   4     1   2   3   4
|---0-3-0-5-0-7-0-|-12-0-10-0-7-----7-|-5-------5-----5-|-3-----3---------|
--------5--5--|---3---3---3--3--|---1--1--7-----7-|
----------4-----2---|-----0-----4--4--|
----------------------4---|
--------------------------|
|-0-----------------------------------|
   (Bass & Elec guitar)

  
  1   2   3   4     1       2       3       4
|---0-3-0-5-0-7-0-|-12--0---10--0---5---------5-----|
----------------3---3---3---|
------------------2-------2-|
----------------------------|
----------------------------|
|-0-------------------------------------|
  1       2       3       4         1       2       3       4
|-5---------5-----5-------5-------|-3---------3---------------------|
|-----3---3---3-----3---3---3---3-|-----1---1---1---7-------------7-|
|-------2-------2-----2-------2---|-------0-------0-----4------4----|
------------------------------------4-------|
--------------------------------------------|
--------------------------------------------|
                                  |Riff 1: (Elec. guitar)
                                  |-7-------------------------------|
                                  |----------10-----7-b(8)r---------|
                                  ---------------7------|
                                  ----------------------|
                                  ----------------------|
                                  ----------------------|

    
  1   2   3   4     1       2       3       4
|---0-3-0-5-0-7-0-|-12--0---10--0---7-------7-------|
--------------5---5---5---5-|
----------------4-------4---|
----------------------------|
----------------------------|
|-0-------------------------------------|
                                   Riff 1
  1       2       3       4         1       2       3       4
|-5-------5-------5-555-----5-----|-3-------3-----------------------|
|---3---3---3---3-------3-----3---|---1---1---1---1-7-------7-------|
--2-----------2-----2-|-----0-------0-----4---4---4---4-|
--------------------------------4-------4---|
--------------------------------------------|
--------------------------------------------|
     (Bass & Elec guitar)                                  Riff1 (1st 3 notes
                                                                  only)
  1   2   3   4     1    2    3   4     1   2   3   4     1   2   3   4
|---0-3-0-5-0-7-0-|-12-0-10-0-7-----7-|-5-------5-----5-|-3-----3---------|
--------5--5--|---3---3---3--3--|---1--1--7-----7-|
----------4-----2---|-----0-----4--4--|
----------------------4---|
--------------------------|
|-0-----------------------------------|
  1     2     3     4       1     2     3     4       1     2     3     4
------------------------------------------|
--6-------------5-------------------------|
|-9-----------9-------------5-------------4-----------|
|-9-----------9-----------|-5-5-5-5-5-5-5-----------|-5-----------5-----------|
|-7-----------------------|-3-3-3-3-3-3-3-----------|-5-----------5-----------|
|-0-------------------------------------|-3-----------------------|
  1     2     3     4
             Guitar 2
-[10]--[11]---|
--------------|
|-7-----------------------|
|-7-----------7-----8-----|
|-5-----------5-----6-----|
--------------|
  1     2     3     4       1     2     3     4       1     2     3     4
 Pm----       Pm---                                  Pm----       Pm---
------------------------------------------|
------------------------------------------|
|-------9-----------9-----|-5-----7-----9-----5-----|-------9-----------9-----|
|-9-9-9-9-----9-9-9-9-----|-5-----7-----9-----5-----|-9-9-9-9-----9-9-9-9-----|
|-7-7-7-7-----7-7-7-7-----|-3-----5-----9-----3-----|-7-7-7-7-----7-7-7-7-----|
------------------------------------------|
  1     2     3     4       1     2     3     4       1     2     3     4
                            Pm----      Pm---
------------------------------------------|
------------------------------------------|
|-5-----7-----9-----------|-------9-----------9-----|-5-----7-----9-----5-----|
|-5-----7-----9-----------|-9-9-9-9-----9-9-9-9-----|-5-----7-----9-----5-----|
|-3-----5-----7-----------|-7-7-7-7-----7-7-7-7-----|-3-----5-----9-----3-----|
------------------------------------------|
  1     2     3     4       1     2     3     4       1     2     3     4
 Pm----       Pm---
------------------------------------------|
------------------------------------------|
|-------9-----------9-----|-5-----7-----9-----5-----|-4-----------------------|
|-9-9-9-9-----9-9-9-9-----|-5-----7-----9-----5-----|-4-----------------------|
|-7-7-7-7-----7-7-7-7-----|-3-----5-----9-----3-----|-2-----------------------|
------------------------------------------|
> 1   2   3   4     1   2   3   4     1   2   3   4     1   2   3   4
|-----8-----8-----|-----8-------8---|-----8-----8-----|-----8--6-------|
|-6-------6-----6-------------------|
------|-9-------9-----9-|-8-------8-----8-|-7-------------7-|
------------------------|
------------------------|
------------------------|
  1   2   3   4     1   2   3   4     1   2   3   4       1   2   3   4
                                                   HP
|-----6-----6-----|-5---------3--/8-|-----3---3-5-353---------8-|
------|-6-----6-----------------|-6-------6---6/8---|
|-6-------6-------|-5---5-----------|-5-----5---------5-|-----5-5---5-------|
----------------------------|
----------------------------|
----------------------------|
  1   2   3   4     1   2   3   4     1   2   3   4      1   2   3   4
|-----10----10----|-----10------10--|-----10----10-----|-----10----------|
|/8-------8-----8-|-7-------7-----7--------------|
------------|-10------10----10-|-9-------------9-|
-------------------------|
-------------------------|
-------------------------|
  1   2   3   4     1   2   3   4     1   2   3   4     1   2   3   4
>                                                  HP
|-----8-----8-----|-7---------5/10--|-----5---5-7-575-------|
------|-8-----8---------------|-8---------------|
|-8-------8-------|-7---7-----------|-7-----7---------------|
------------------------|
------------------------|
------------------------|
Here shold be the guitar solo but... ;)
There shouldn´t be anything else in the rest of the song. Just repeat
those figures above...

 ManOwaR	
		                 
                                    Battle Hymns			
   			   from the album Battle Hymns.
			    Tabs made by Kimmo Kujansuu.

					solo

|-12---12-12-12-12-12-12-12-12-12-12-12-12-12-12-12-12-12-12-12-12-|
|-15bu(17)RP-RP-RP-RP-RP-RP-RP-RP-RP-17-15-15-17-15-15-17-15-15-17-|
-------------------------------------------------------|
-------------------------------------------------------|
-------------------------------------------------------|
-------------------------------------------------------|

--------------------------------------------------------|
|-12---13---|-15-13-12-13-15-13-12-13-15-13-12-13-15--|-13-12-------------------------------|
|*---------------------------------------*|-------14bu(16)-12-14-12-------------|
|*---------------------------------------*--------------14-12----12-|
--------------------------------------------------14----|
--------------------------------------------------------|

-------------------------------17bu(19)---RP-RP-RP-17bu(19)-17bu(19)-|
|-12------12-12-12-12-12-12-12-12-12-12-12---------------------------------------|
|-14bu(16)RP-RP-RP-RP-RP-RP-RP-RP-RP-RP-RP---------------------------------------|
---------------------------------------------------------------------|
---------------------------------------------------------------------|
---------------------------------------------------------------------|

|------15-14-15-17-15-14----------------------------------------------------|
|-15---------------------17p15----15-17---17-15-15-15----15---|-17p15----15-17p15----15-|
-------------------16---------------------16------|-------16----------16----|
----------------------------------------------------------------|
----------------------------------------------------------------|
----------------------------------------------------------------|

---17--------------17-|-17h20p17----17-20p17----17-|
|-17h20p17h20p----17h20p17h20p----|----------19----------19----|
---------------------------------------|
---------------------------------------|
---------------------------------------|
---------------------------------------|

|-17bu(19)-15-15----------15h17h19p17p15----15-17-|
-----15h17h19----------------17-------|
--------------------------------------|
--------------------------------------|
--------------------------------------|
--------------------------------------|

|-17-19-15-17----15-------15-17-19-17-15-------------------------------------|
--19----17-19----------------19-17-15-17-15----------------------|
--------------------------------------------17-15----15----------|
--------------------------------------------------17----17-15----|
--------------------------------------------------------------17-|
-----------------------------------------------------------------|

--------------7-7--7-7--7-7--7---|-16bu(17)-15-12-------------------------------|
--------8---8-8-10-8-10-8-10-8--------15bu(17)bd-p12----------------|
7---7-9---9------------------------------------------14bu(16)bd-p12-|
|-2-5-2-5/9---9-----------------------------------------------------------------|
--------------------------------------------------------------------|
--------------------------------------------------------------------|

---------------|
---------------|
|-14p12--------------------|
|-------14-12----12-12----|
--14-----------|
---------------|


+++++++++++++++
Another version
+++++++++++++++

- Intro zu Battle Hymn:

|-----0--3--0--5--0--7--0--12--0--10--0--------
-----------------------------------
-----------------------------------
-----------------------------------
-----------------------------------
|--0-------------------------------------------

 --7-------7---5-------5-------5---3-------3---2-------2--|
 ----8---8-------7---7---7---7-------5---5-------3---3----|
 ------9-----------7-------7-----------5-----------4------|
 ---------------------------------------------------------|
 ---------------------------------------------------------|
 ---------------------------------------------------------|

Strophe:
-------------------------------|
-------------------------------|
-------------------------------|
|--9----------------------------7----------|
|--7----7------10----------5----5----5--6--|
|----------10---8----7--5--3----5----------|

Chorus:

       Gitarre 1
           |
           v
|---------12----------12-----------------------12----------12------------|
-------------------------------------------------------------|
-------------------------------------------------------------|
|----------9-----------9---5--7--9--4-----------9-----------9---5--7--9--|
|----------7-----------7---3--5--7--2-----------7-----------7---3--5--7--|
|-0--0--0-----0--0--0-------------------0--0--0-----0--0--0--------------|
  - P.M.-  ^  - P.M.-                   - P.M.-     - P.M.-
           |
     Bass/Gitarre 2

|--------12----------12-----------------------12----------12----------------|
----------------------------------------------------------------|
----------------------------------------------------------------|
|---------9-----------9---5--7--9--4-----------9-----------9---5--7--9--5--4|
|---------7-----------7---3--5--7--2-----------7-----------7---3--5--7--3--2|
|-0--0--0-----0--0--0------------------0--0--0-----0--0--0------------------|
  - P.M.-     - P.M.-                  - P.M.-     - P.M.-


Текст, аккорды и табулатура для песни "Battle Hymn", исполняет "Manowar".
Используемые в песне аккорды можно найти в разделе Как брать аккорды. Аккорды для шестиструнной гитары. Другие песни можно найти на нашем сайте, воспользовавшись алфавитным указателем вверху страницы.


Слушать онлайн Battle Hymn


ManowarBattle Hymn на Яндекс.Музыке


 
Ошибка в тексте? Выделите ошибку и нажмите Ctrl+Enter