Manic Street Preachers - Removables
 Of 1996's 'Everything Must Go'

Tabbed by Mike Wood ([email protected])

Intro:
e -------------2-2-2-2-(2)-(2)-----------------0-0-0-0-0-0-
b -2-2-(2)-(2)-2-2-2-2-(2)-(2)-5-5-5-5-(5)-(5)-0-0-0-0-0-0-
g -2-2-(2)-(2)-2-2-2-2-(2)-(2)-5-5-5-5-(5)-(5)-1-1-1-1-1-1-
d -2-2-(2)-(2)-4-4-4-4-(4)-(4)-5-5-5-5-(5)-(5)-2-2-2-2-2-2-
a -0-0-(0)-(0)-4-4-4-4-(4)-(4)-3-3-3-3-(3)-(3)-2-2-2-2-2-2-
e -------------2-2-2-2-(2)-(2)-----------------0-0-0-0-0-0-

e -------------2-2-2-2-(2)-(2)-----------------0-0-0-0-0-0-
b -2-2-(2)-(2)-2-2-2-2-(2)-(2)-5-5-5-5-(5)-(5)-0-0-0-0-0-0-
g -2-2-(2)-(2)-2-2-2-2-(2)-(2)-5-5-5-5-(5)-(5)-1-1-1-1-1-1-
d -2-2-(2)-(2)-4-4-4-4-(4)-(4)-5-5-5-5-(5)-(5)-2-2-2-2-2-2-
a -0-0-(0)-(0)-4-4-4-4-(4)-(4)-3-3-3-3-(3)-(3)-2-2-2-2-2-2-
e -------------2-2-2-2-(2)-(2)-----------------0-0-0-0-0-0-

e -------------2-2-2-2-(2)-(2)-----------------0-0-0-0-0-0-
b -2-2-(2)-(2)-2-2-2-2-(2)-(2)-5-5-5-5-(5)-(5)-0-0-0-0-0-0-
g -2-2-(2)-(2)-2-2-2-2-(2)-(2)-5-5-5-5-(5)-(5)-1-1-1-1-1-1-
d -2-2-(2)-(2)-4-4-4-4-(4)-(4)-5-5-5-5-(5)-(5)-2-2-2-2-2-2-
a -0-0-(0)-(0)-4-4-4-4-(4)-(4)-3-3-3-3-(3)-(3)-2-2-2-2-2-2-
e -------------2-2-2-2-(2)-(2)-----------------0-0-0-0-0-0-

e -------------2-2-2-2-(2)-(2)-----------------0-0-0-0-0-0-
b -2-2-(2)-(2)-2-2-2-2-(2)-(2)-5-5-5-5-(5)-(5)-0-0-0-0-0-0-
g -2-2-(2)-(2)-2-2-2-2-(2)-(2)-5-5-5-5-(5)-(5)-1-1-1-1-1-1-
d -2-2-(2)-(2)-4-4-4-4-(4)-(4)-5-5-5-5-(5)-(5)-2-2-2-2-2-2-
a -0-0-(0)-(0)-4-4-4-4-(4)-(4)-3-3-3-3-(3)-(3)-2-2-2-2-2-2-
e -------------2-2-2-2-(2)-(2)-----------------0-0-0-0-0-0-

Verse 1:
e -------------2-2-2-2-(2)-(2)-----------------0-0-0-0-0-0-
b -2-2-(2)-(2)-2-2-2-2-(2)-(2)-5-5-5-5-(5)-(5)-0-0-0-0-0-0-
g -2-2-(2)-(2)-2-2-2-2-(2)-(2)-5-5-5-5-(5)-(5)-1-1-1-1-1-1-
d -2-2-(2)-(2)-4-4-4-4-(4)-(4)-5-5-5-5-(5)-(5)-2-2-2-2-2-2-
a -0-0-(0)-(0)-4-4-4-4-(4)-(4)-3-3-3-3-(3)-(3)-2-2-2-2-2-2-
e -------------2-2-2-2-(2)-(2)-----------------0-0-0-0-0-0-
Conscience binds you in chains trail by stone hammer and nails

e -------------2-2-2-2-(2)-(2)-----------------0-0-0-0-0-0-
b -2-2-(2)-(2)-2-2-2-2-(2)-(2)-5-5-5-5-(5)-(5)-0-0-0-0-0-0-
g -2-2-(2)-(2)-2-2-2-2-(2)-(2)-5-5-5-5-(5)-(5)-1-1-1-1-1-1-
d -2-2-(2)-(2)-4-4-4-4-(4)-(4)-5-5-5-5-(5)-(5)-2-2-2-2-2-2-
a -0-0-(0)-(0)-4-4-4-4-(4)-(4)-3-3-3-3-(3)-(3)-2-2-2-2-2-2-
e -------------2-2-2-2-(2)-(2)-----------------0-0-0-0-0-0-

e -------------2-2-2-2-(2)-(2)-----------------0-0-0-0-0-0-
b -2-2-(2)-(2)-2-2-2-2-(2)-(2)-5-5-5-5-(5)-(5)-0-0-0-0-0-0-
g -2-2-(2)-(2)-2-2-2-2-(2)-(2)-5-5-5-5-(5)-(5)-1-1-1-1-1-1-
d -2-2-(2)-(2)-4-4-4-4-(4)-(4)-5-5-5-5-(5)-(5)-2-2-2-2-2-2-
a -0-0-(0)-(0)-4-4-4-4-(4)-(4)-3-3-3-3-(3)-(3)-2-2-2-2-2-2-
e -------------2-2-2-2-(2)-(2)-----------------0-0-0-0-0-0-
No-one made the holes but me misery mourns to be devoured

e -------------2-2-2-2-(2)-(2)-----------------0-0-0-0-0-0-
b -2-2-(2)-(2)-2-2-2-2-(2)-(2)-5-5-5-5-(5)-(5)-0-0-0-0-0-0-
g -2-2-(2)-(2)-2-2-2-2-(2)-(2)-5-5-5-5-(5)-(5)-1-1-1-1-1-1-
d -2-2-(2)-(2)-4-4-4-4-(4)-(4)-5-5-5-5-(5)-(5)-2-2-2-2-2-2-
a -0-0-(0)-(0)-4-4-4-4-(4)-(4)-3-3-3-3-(3)-(3)-2-2-2-2-2-2-
e -------------2-2-2-2-(2)-(2)-----------------0-0-0-0-0-0-

e -------------2-2-2-2-(2)-(2)-----------------0-0-0-0-0-0-
b -2-2-(2)-(2)-2-2-2-2-(2)-(2)-5-5-5-5-(5)-(5)-0-0-0-0-0-0-
g -2-2-(2)-(2)-2-2-2-2-(2)-(2)-5-5-5-5-(5)-(5)-1-1-1-1-1-1-
d -2-2-(2)-(2)-4-4-4-4-(4)-(4)-5-5-5-5-(5)-(5)-2-2-2-2-2-2-
a -0-0-(0)-(0)-4-4-4-4-(4)-(4)-3-3-3-3-(3)-(3)-2-2-2-2-2-2-
e -------------2-2-2-2-(2)-(2)-----------------0-0-0-0-0-0-
Killed God blood soiled unclean again

e -------------2-2-2-2-(2)-(2)-----------------0-0-0-0-0-0-
b -2-2-(2)-(2)-2-2-2-2-(2)-(2)-5-5-5-5-(5)-(5)-0-0-0-0-0-0-
g -2-2-(2)-(2)-2-2-2-2-(2)-(2)-5-5-5-5-(5)-(5)-1-1-1-1-1-1-
d -2-2-(2)-(2)-4-4-4-4-(4)-(4)-5-5-5-5-(5)-(5)-2-2-2-2-2-2-
a -0-0-(0)-(0)-4-4-4-4-(4)-(4)-3-3-3-3-(3)-(3)-2-2-2-2-2-2-
e -------------2-2-2-2-(2)-(2)-----------------0-0-0-0-0-0-
Killed God blood soiled skin dead again

e -------------2-2-2-2-(2)-(2)-----------------0-0-0-0-0-0-
b -2-2-(2)-(2)-2-2-2-2-(2)-(2)-5-5-5-5-(5)-(5)-0-0-0-0-0-0-
g -2-2-(2)-(2)-2-2-2-2-(2)-(2)-5-5-5-5-(5)-(5)-1-1-1-1-1-1-
d -2-2-(2)-(2)-4-4-4-4-(4)-(4)-5-5-5-5-(5)-(5)-2-2-2-2-2-2-
a -0-0-(0)-(0)-4-4-4-4-(4)-(4)-3-3-3-3-(3)-(3)-2-2-2-2-2-2-
e -------------2-2-2-2-(2)-(2)-----------------0-0-0-0-0-0-
again everywhere again

e -------------2-2-2-2-(2)-(2)---------0-0-0-0-0-
b -2-2-(2)-(2)-2-2-2-2-(2)-(2)-5-5-5---0-0-0-0-0-
g -2-2-(2)-(2)-2-2-2-2-(2)-(2)-5-5-5---1-1-1-0-0-
d -2-2-(2)-(2)-4-4-4-4-(4)-(4)-5-5-5-0-2-2-2-0-0-
a -0-0-(0)-(0)-4-4-4-4-(4)-(4)-3-3-3-0-2-2-2-----
e -------------2-2-2-2-(2)-(2)-------0-0-0-0-----

Chorus:
e -----------------------------------------------------
b -----------------------------------------------------
g -----2---2-2-------2-2-------0-0---------0-----------
d ---2---2-2-2-----2---x-----3-----------3-----3-------
a -0-------0-0-0-3-----3---2-------0-3-3-----3---2h3p2-
e -----------------------0-----------------------------
All removables all transitory

e ---------------------------------------------------------
b ---------------------------------------------------------
g -----2---2-2-------2-2-------0-0-------------------------
d ---2---2-2-2-----2---x-----3-----------------------------
a -0-------0-0-0-3-----3---2-------0-3-3h5p3-3h5p3-3h5p3-0-
e -----------------------0---------------------------------
All removables passing always

e ---------------------------------------------------0---------
b -------------------------------1-1-1-1-1-1-------1---1-------
g -5-5-5-5-5-0-5-5-5-5-5-5-5-5-0-0-0-0-0-0-0-----0-------0-----
d -5-5-5-5-5-0-5-5-5-5-5-5-5-5-0-2-2-2-2-2-2-3-3-----------3-0-
a -3-3-3-3-3-0-5-5-5-5-5-5-5-5-0-----------------------------0-
e -------------------------------------------------------------
All removables all transitory

e -------------------------------------------------------------
b -------------------------------1-1-1-1-1-1-------------------
g -5-5-5-5-5-0-5-5-5-5-5-5-5-5-0-0-0-0-0-0-0-------------------
d -5-5-5-5-5-0-5-5-5-5-5-5-5-5-0-2-2-2-2-2-2-3-3-3-3-3-3-3-3-3-
a -3-3-3-3-3-0-5-5-5-5-5-5-5-5-0-------------3-3-3-3-3-3-3-3-3-
e -------------------------------------------1-1-1-1-1-1-1-1-1-
All removables passing always

Break:
e ---------------------------0-------------------------
b ---------------1-------1-----3-1---------0-----------
g -2-0h2-0-2-0-2---2-0-2---3-------2-0-2-9---9-7-7-7-5-
d -----------------------------------------------------
a -----------------------------------------------------
e -----------------------------------------------------

Verse 2:
e ---------
b ---------
g -2-2-2-2-
d ---------
a ---------
e ---------
Never grown preserved gently a bronze moth dies easily

e -------------2-2-2-2-(2)-(2)-----------------0-0-0-0-0-0-
b -2-2-(2)-(2)-2-2-2-2-(2)-(2)-5-5-5-5-(5)-(5)-0-0-0-0-0-0-
g -2-2-(2)-(2)-2-2-2-2-(2)-(2)-5-5-5-5-(5)-(5)-1-1-1-1-1-1-
d -2-2-(2)-(2)-4-4-4-4-(4)-(4)-5-5-5-5-(5)-(5)-2-2-2-2-2-2-
a -0-0-(0)-(0)-4-4-4-4-(4)-(4)-3-3-3-3-(3)-(3)-2-2-2-2-2-2-
e -------------2-2-2-2-(2)-(2)-----------------0-0-0-0-0-0-
Unknown to others weak to me broken hands never ending

e -------------2-2-2-2-(2)-(2)-----------------0-0-0-0-0-0-
b -2-2-(2)-(2)-2-2-2-2-(2)-(2)-5-5-5-5-(5)-(5)-0-0-0-0-0-0-
g -2-2-(2)-(2)-2-2-2-2-(2)-(2)-5-5-5-5-(5)-(5)-1-1-1-1-1-1-
d -2-2-(2)-(2)-4-4-4-4-(4)-(4)-5-5-5-5-(5)-(5)-2-2-2-2-2-2-
a -0-0-(0)-(0)-4-4-4-4-(4)-(4)-3-3-3-3-(3)-(3)-2-2-2-2-2-2-
e -------------2-2-2-2-(2)-(2)-----------------0-0-0-0-0-0-

e -------------2-2-2-2-(2)-(2)-----------------0-0-0-0-0-0-
b -2-2-(2)-(2)-2-2-2-2-(2)-(2)-5-5-5-5-(5)-(5)-0-0-0-0-0-0-
g -2-2-(2)-(2)-2-2-2-2-(2)-(2)-5-5-5-5-(5)-(5)-1-1-1-1-1-1-
d -2-2-(2)-(2)-4-4-4-4-(4)-(4)-5-5-5-5-(5)-(5)-2-2-2-2-2-2-
a -0-0-(0)-(0)-4-4-4-4-(4)-(4)-3-3-3-3-(3)-(3)-2-2-2-2-2-2-
e -------------2-2-2-2-(2)-(2)-----------------0-0-0-0-0-0-
Aimless rut of my own perception

e -------------2-2-2-2-(2)-(2)-----------------0-0-0-0-0-0-
b -2-2-(2)-(2)-2-2-2-2-(2)-(2)-5-5-5-5-(5)-(5)-0-0-0-0-0-0-
g -2-2-(2)-(2)-2-2-2-2-(2)-(2)-5-5-5-5-(5)-(5)-1-1-1-1-1-1-
d -2-2-(2)-(2)-4-4-4-4-(4)-(4)-5-5-5-5-(5)-(5)-2-2-2-2-2-2-
a -0-0-(0)-(0)-4-4-4-4-(4)-(4)-3-3-3-3-(3)-(3)-2-2-2-2-2-2-
e -------------2-2-2-2-(2)-(2)-----------------0-0-0-0-0-0-
Numbly waiting for voices to

e -------------2-2-2-2-(2)-(2)-----------------0-0-0-0-0-0-
b -2-2-(2)-(2)-2-2-2-2-(2)-(2)-5-5-5-5-(5)-(5)-0-0-0-0-0-0-
g -2-2-(2)-(2)-2-2-2-2-(2)-(2)-5-5-5-5-(5)-(5)-1-1-1-1-1-1-
d -2-2-(2)-(2)-4-4-4-4-(4)-(4)-5-5-5-5-(5)-(5)-2-2-2-2-2-2-
a -0-0-(0)-(0)-4-4-4-4-(4)-(4)-3-3-3-3-(3)-(3)-2-2-2-2-2-2-
e -------------2-2-2-2-(2)-(2)-----------------0-0-0-0-0-0-
Tell me for voices to

e -------------2-2-2-2-(2)-(2)-----------------0-0-(0)-(0)-
b -2-2-(2)-(2)-2-2-2-2-(2)-(2)-5-5-5-5-(5)-(5)-0-0-(0)-(0)-
g -2-2-(2)-(2)-2-2-2-2-(2)-(2)-5-5-5-5-(5)-(5)-1-1-(1)-(1)-
d -2-2-(2)-(2)-4-4-4-4-(4)-(4)-5-5-5-5-(5)-(5)-2-2-(2)-(2)-
a -0-0-(0)-(0)-4-4-4-4-(4)-(4)-3-3-3-3-(3)-(3)-2-2-(2)-(2)-
e -------------2-2-2-2-(2)-(2)-----------------0-0-(0)-(0)-
Tell me

Chorus:
e -----------------------------------------------------
b -----------------------------------------------------
g -----2---2-2-------2-2-------0-0---------0-----------
d ---2---2-2-2-----2---x-----3-----------3-----3-------
a -0-------0-0-0-3-----3---2-------0-3-3-----3---2h3p2-
e -----------------------0-----------------------------
All removables all transitory

e ---------------------------------------------------------
b ---------------------------------------------------------
g -----2---2-2-------2-2-------0-0-------------------------
d ---2---2-2-2-----2---x-----3-----------------------------
a -0-------0-0-0-3-----3---2-------0-3-3h5p3-3h5p3-3h5p3-0-
e -----------------------0---------------------------------
All removables passing always

e ---------------------------------------------------0---------
b -------------------------------1-1-1-1-1-1-------1---1-------
g -5-5-5-5-5-0-5-5-5-5-5-5-5-5-0-0-0-0-0-0-0-----0-------0-----
d -5-5-5-5-5-0-5-5-5-5-5-5-5-5-0-2-2-2-2-2-2-3-3-----------3-0-
a -3-3-3-3-3-0-5-5-5-5-5-5-5-5-0-----------------------------0-
e -------------------------------------------------------------
All removables all transitory

e -------------------------------------------------------------
b -------------------------------1-1-1-1-1-1-------------------
g -5-5-5-5-5-0-5-5-5-5-5-5-5-5-0-0-0-0-0-0-0-------------------
d -5-5-5-5-5-0-5-5-5-5-5-5-5-5-0-2-2-2-2-2-2-3-3-3-3-3-3-3-3-3-
a -3-3-3-3-3-0-5-5-5-5-5-5-5-5-0-------------3-3-3-3-3-3-3-3-3-
e -------------------------------------------1-1-1-1-1-1-1-1-1-
All removables passing always

Bridge:
e ---------------------------------------------------0---------
b -------------------------------1-1-1-1-1-1-------1---1-------
g -5-5-5-5-5-0-5-5-5-5-5-5-5-5-0-0-0-0-0-0-0-----0-------0-----
d -5-5-5-5-5-0-5-5-5-5-5-5-5-5-0-2-2-2-2-2-2-3-3-----------3-0-
a -3-3-3-3-3-0-5-5-5-5-5-5-5-5-0-----------------------------0-
e -------------------------------------------------------------
All removables all transitory

e -------------------------------------------------------------
b -------------------------------1-1-1-1-1-1-------------------
g -5-5-5-5-5-0-5-5-5-5-5-5-5-5-0-0-0-0-0-0-0-------------------
d -5-5-5-5-5-0-5-5-5-5-5-5-5-5-0-2-2-2-2-2-2-3-3-3-3-3-3-3-3-3-
a -3-3-3-3-3-0-5-5-5-5-5-5-5-5-0-------------3-3-3-3-3-3-3-3-3-
e -------------------------------------------1-1-1-1-1-1-1-1-1-
All removables passing always

e ----------------------------------------------------------
b ----------------------------------------------------------
g -2-2-----0-0-----------2---2-2----------2-2-------0-0-----
d -2-2---3-------3-3---2---2-2-2-------2----x-----3---------
a -0-0-2-------0-3-3-0-------0-0-0-3-3------3-0-2-------0-3-
e ----------------------------------------------------------

e ------------------------------------------------
b ------------------------------------------------
g -----0-0-----------------------0--------2-1-1-1-
d ---3-----7---0---------0-----0---0----------0-0-
a -3-------7-7---7-4---4---4-3----------2---------
e ---------5---------2----------------0---------0-


Текст, аккорды и табулатура для песни "Removables", исполняет "Manic Street Preachers".
Используемые в песне аккорды можно найти в разделе Как брать аккорды. Аккорды для шестиструнной гитары. Другие песни можно найти на нашем сайте, воспользовавшись алфавитным указателем вверху страницы.


 
Ошибка в тексте? Выделите ошибку и нажмите Ctrl+Enter